MUZBANK


МУЗЫКАЛЬНО-ИНФОРМАЦИОННЫЙ БАНК





BBlink 182 • Alone (аккорды и текст - chords & lyrics)


426

Print

Видео «Alone (Blink 182)»

Видео клипы к песне подбираются автоматически сайтом youtube. Возможны некоторые несоответствия клипов песне.

↑ Спрятать рекламу ↑





Intro
E|-------------------------------------------------------------------
B|-------------------------------------------------------------------
G|-------------------------------------------------------------------
D|-2~~--3-3-3-2-0------5---3---2------------------------------------ x7
A|-0~~-------------3------------------------------------------------
E|-------------------------------------------------------------------

E|-------------------------------------------------------------------
B|-------------------------------------------------------------------
G|-------------------------------------------------------------------
D|-2~~--3-3-3-2-0-------5-5--3-2-3-2--------------------------------- x1
A|-0~~-------------3-3-----------------------------------------------
E|-------------------------------------------------------------------
. . . . . . . .

E|-------------------------------------------------------------------
B|-------------------------------------------------------------------
G|-------------------------------------------------------------------
D|-2~~--3-3-3-2-0------5---3---2------------------------------------- x3
A|-0~~-------------3-------------------------------------------------
E|-------------------------------------------------------------------

E|-------------------------------------------------------------------
B|-------------------------------------------------------------------
G|-------------------------------------------------------------------
D|-2~~--3-3-3-2-0-------5-5--3-3-2----------------------------------- x1
A|-0~~-------------3-3-----------------------------------------------
E|-------------------------------------------------------------------
. . . . . . *

First Verse
E|-------------------------------------------------------------------
B|-------------------------------------------------------------------
G|-5-5-5-5-5-5-5-5--2-2-2-2-2-2-2-2--5-5-5-5-5-5-5-5--2-2-2-2-2-2-2-2
D|-5-5-5-5-5-5-5-5--2-2-2-2-2-2-2-2--5-5-5-5-5-5-5-5--2-2-2-2-2-2-2-2 x1
A|-3-3-3-3-3-3-3-3--0-0-0-0-0-0-0-0--3-3-3-3-3-3-3-3--0-0-0-0-0-0-0-0
E|-------------------------------------------------------------------

Pre-Verse
E|-------------------------------------------------------------------
B|-------------------------------------------------------------------
G|-5-5-5-5--10-10-10-10--12-12-12-12--7-7--5--4----------------------
D|-5-5-5-5--10-10-10-10--12-12-12-12--7-7---------------------------- x2
A|-3-3-3-3---8--8--8--8--10-10-10-10--5-5----------------------------
E|-------------------------------------------------------------------

Chorus
E|-------------------------------------------------------------------
B|-------------------------------------------------------------------
G|-2-2-2-2--9-9-9-9--10-10-10-10--5~~--5b----------------------------
D|-2-2-2-2--9-9-9-9--10-10-10-10--5~~-------------------------------- x3
A|-0-0-0-0--7-7-7-7---8--8--8--8--3~~--------------------------------
E|-------------------------------------------------------------------

E|-------------------------------------------------------------------
B|-------------------------------------------------------------------
G|-2-2-2-2--9-9-9-9--10-10-10-10--5-5-5-5----------------------------
D|-2-2-2-2--9-9-9-9--10-10-10-10--5-5-5-5---------------------------- x1
A|-0-0-0-0--7-7-7-7---8--8--8--8--3-3-3-3----------------------------
E|-------------------------------------------------------------------

Intro
E|-------------------------------------------------------------------
B|-------------------------------------------------------------------
G|-------------------------------------------------------------------
D|-2~~--3-3-3-2-0------5---3---2------------------------------------- x3
A|-0~~-------------3-------------------------------------------------
E|-------------------------------------------------------------------

E|-------------------------------------------------------------------
B|-------------------------------------------------------------------
G|-------------------------------------------------------------------
D|-2~~--3-3-3-2-0-------5-5--3-3-2----------------------------------- x1
A|-0~~-------------3-3-----------------------------------------------
E|-------------------------------------------------------------------
. . . . . . *

Second Verse
E|-------------------------------------------------------------------
B|-------------------------------------------------------------------
G|-5-5-5-5-5-5-5-5--2-2-2-2-2-2-2-2--5-5-5-5-5-5-5-5--2-2-2-2-2-2-2-2
D|-5-5-5-5-5-5-5-5--2-2-2-2-2-2-2-2--5-5-5-5-5-5-5-5--2-2-2-2-2-2-2-2 x1
A|-3-3-3-3-3-3-3-3--0-0-0-0-0-0-0-0--3-3-3-3-3-3-3-3--0-0-0-0-0-0-0-0
E|-------------------------------------------------------------------

Pre-Verse
E|-------------------------------------------------------------------
B|-------------------------------------------------------------------
G|-5-5-5-5--10-10-10-10--12-12-12-12--7-7--5--4----------------------
D|-5-5-5-5--10-10-10-10--12-12-12-12--7-7---------------------------- x2
A|-3-3-3-3---8--8--8--8--10-10-10-10--5-5----------------------------
E|-------------------------------------------------------------------

Chorus
E|-------------------------------------------------------------------
B|-------------------------------------------------------------------
G|-2-2-2-2--9-9-9-9--10-10-10-10--5~~--5b----------------------------
D|-2-2-2-2--9-9-9-9--10-10-10-10--5~~-------------------------------- x2
A|-0-0-0-0--7-7-7-7---8--8--8--8--3~~--------------------------------
E|-------------------------------------------------------------------

E|-------------------------------------------------------------------
B|-------------------------------------------------------------------
G|-2-2-2-2--9-9-9-9--10-10-10-10--5-5-5-5----------------------------
D|-2-2-2-2--9-9-9-9--10-10-10-10--5-5-5-5---------------------------- x2
A|-0-0-0-0--7-7-7-7---8--8--8--8--3-3-3-3----------------------------
E|-------------------------------------------------------------------

Bridge
E|-------------------------------------------------------------------
B|-------------------------------------------------------------------
G|-------------------------------------------------------------------
D|-2~~--3-3-3-2-0------5---3---2------------------------------------- x2
A|-0~~-------------3-------------------------------------------------
E|-------------------------------------------------------------------

E|-------------------------------------------------------------------
B|-------------------------------------------------------------------
G|-5-5-5-5-5-5-5-5--2------2------2-------4--2-----------------------
D|-5-5-5-5-5-5-5-5--2------------------------------------------------ x2
A|-3-3-3-3-3-3-3-3--0--0-0----0-0----0-0-----------------------------
E|-------------------------------------------------------------------
. . . . . .

E|-------------------------------------------------------------------
B|-------------------------------------------------------------------
G|-5-5-5-5--10-10-10-10--12-12-12-12--7-7-7-7------------------------
D|-5-5-5-5--10-10-10-10--12-12-12-12--7-7-7-7------------------------ x2
A|-3-3-3-3---8--8--8--8--10-10-10-10--5-5-5-5------------------------
E|-------------------------------------------------------------------

Ending
E|-------------------------------------------------------------------
B|-------------------------------------------------------------------
G|-2-2-2-2--9-9-9-9--10-10-10-10--5~~--5b----------------------------
D|-2-2-2-2--9-9-9-9--10-10-10-10--5~~-------------------------------- x2
A|-0-0-0-0--7-7-7-7---8--8--8--8--3~~--------------------------------
E|-------------------------------------------------------------------

E|-------------------------------------------------------------------
B|-------------------------------------------------------------------
G|-2-2-2-2--9-9-9-9--10-10-10-10--5-5-5-5----------------------------
D|-2-2-2-2--9-9-9-9--10-10-10-10--5-5-5-5---------------------------- x2
A|-0-0-0-0--7-7-7-7---8--8--8--8--3-3-3-3----------------------------
E|-------------------------------------------------------------------

End On
E|-------------------------------------------------------------------
B|-------------------------------------------------------------------
G|-2~~~~~~~~---------------------------------------------------------
D|-2~~~~~~~~--------------------------------------------------------- x1
A|-0~~~~~~~~---------------------------------------------------------
E|-------------------------------------------------------------------

Тональность:

Это должно быть в ТОП-листе! - Топ-лист композиций



Назад
Рекомендуем посмотреть другие песни исполнителя «Blink 182»:

  • Комменты Fb ()
  • Комменты ВК



Добавить в Избранное Браузера
Сохранить здесь Очистить


x

0


+
-

+
-

-

Авторизация





Зарегистрироваться

M

Дата и время

  • 23:04:25
     

Социальные ссылки


Наши приложения

  • Muzbank App Play Market
  • Muzbank Amazon App