MUZBANK



A MOST COMPLETE BANK OF MUSIC INFORMATION

МУЗЫКАЛЬНО-ИНФОРМАЦИОННЫЙ БАНК





BBlink 182 • Asthenia (аккорды и текст - chords & lyrics)


489

Print

Видео «Asthenia (Blink 182)»

Видео клипы к песне подбираются автоматически сайтом youtube. Возможны некоторые несоответствия клипов песне.

↑ Спрятать рекламу ↑






INTRO
E|-----------------|
B|------7~---------|
G|--7--------7---6-|
D|----0--------0---|
A|-----------------|
E|-----------------|

VERSE (With Digital effects)
E|-----------------------------------|
B|-----------------------------------|
G|--7-7-7-7-6-6-6-6-4-4-4-4-6-6-6-6--|
D|--7-7-7-7-6-6-6-6-4-4-4-4-6-6-6-6--|
A|--5-5-5-5-4-4-4-4-2-2-2-2-4-4-4-4--|
E|-----------------------------------|

Pre-Chorus Riff
E|-------------------|-------------------|
B|-------------------|-------------------|
G|--7-7-6-6-7-7-7/9--|--7-7-6-6----------|
D|--x-x-x-x-x-x-x-x--|--x-x-x-x----------|
A|--5-5-4-4-5-5-5/7--|--5-5-4-4-0-0-0-0--|
E|-------------------|----------0-0-0-0--|
PM . . . .
CHORUS
E|---------------------------------------------------|
B|---------------------------------------------------|
G|---------------------------------------------------|
D|---------------------------------------------------|
A|-------5-5-----5-5-----5--------5-5-----4-4-----5--|
E|--2-2------3-3-----3-3----3/5-5-----5-5-----5-5----|

INTERLUDE
E|-----------------------------------|
B|-----------------------------------|
G|--7--7-7-7-7-7-7-7-7-7--7-7--7-7---|
D|--x--x-x-x-x-x-x-x-x-x--x-x--x-x---|
A|--5--5-5-5-5-5-5-5-5-5--5-5--5-5---|x4
E|-----------------------------------|

INTERLUDE PART 2
E|-------------------------------------------------|
B|-------------------------------------------------|
G|-------------------------------------------------|
D|--7-7-7-7--4-4-4-4h5-5-5-2-2-2-2-2-2-2--7-7-7-7--|
A|--5-5-5-5-------------------------------5-5-5-5--|
E|-------------------------------------------------|
PM. . . . . . . .

E|----------------------------------------------|
B|----------------------------------------------|
G|----------------------------------------------|
D|----------4-4-4-4h5-5-5-2-2-2-2-2-2-2---------|
A|--4-4-4-4-----------------------------4-4--4--|
E|--2-2-2-2-----------------------------2-2--2--|
PM. . . . . . .

ORDER:
INTRO
VERSE
PRE-CHORUS RIFF
CHORUS
INTRO
VERSE
PRE-CHORUS RIFF
CHORUS
INTERLUDE
INTERLUDE PART 2

Тональность:

Это должно быть в ТОП-листе! - Топ-лист композиций



Назад
Рекомендуем посмотреть другие песни исполнителя «Blink 182»:

  • Комменты Fb ()
  • Комменты ВК



Добавить в Избранное Браузера
Сохранить здесь Очистить


x

0


+
-

+
-

-

Авторизация





Зарегистрироваться

M

Дата и время

  • 17:42:26
     

Социальные ссылки


Наши приложения

  • Muzbank App Play Market
  • Muzbank Amazon App
  • Muzbank Bitcoin13igjuWJj2R4cHiyZqP7Q3ggVvfXE9j82Q