MUZBANK


МУЗЫКАЛЬНО-ИНФОРМАЦИОННЫЙ БАНК





BBlink 182 • Carousel (аккорды и текст - chords & lyrics)


868

Print

Видео «Carousel (Blink 182)»

Видео клипы к песне подбираются автоматически сайтом youtube. Возможны некоторые несоответствия клипов песне.

↑ Спрятать рекламу ↑






Intro: Guitar 1
e|-------------------------------------------------------------|
B|-------------------------------------------------------------|
G|-------------------------------------------------------------|
D|-------------------------------------------------------------|
A|12-12-12-10-10-10-9-12-12-12-10-10-10-9-4-4-4-5-5-5-7-4-4-4-5|
E|-------------------------------------------------------------|

E|-------|
B|-------|
G|-------|
D|-------|
A|-5-5-7-|
E|-------|

       Guitar 2
e|-------------------------------------------------------------|
B|-------------------------------------------------------------|
G|7-7-7-7-7-7-7-7-7-7-7-7-7-7-7-7-7-7-7-7----------------------|
D|7-7-7-7-7-7-7-7-7-7-7-7-7-7-7-7-7-7-7-7-4h5-5-5-5-4-4-4-2-2-2|
A|5-5-5-5-5-5-5-5-5-5-5-5-5-5-5-5-5-5-5-5----------------------|
E|-------------------------------------------------------------|
       Guitar 1
e|---------------------------------------------------------|
B|---------------------------------------------------------|
G|---------------------------------------------------------|
D|---------------------------------------------------------|
A|-10-10-10-9-9-9--7--10-10-10-9-9-9--7--5-5-5-5-5-5-5-5-5-|
E|---------------------------------------------------------|

E|-------------------------|
B|-------------------------|
G|-------------------------|(2x)
D|-------------------------|
A|-5-5-5--5-5-5--5-5-5-----|
E|-------------------------|
       Guitar 2
e|-----------------------------------------------------------|
B|-----------------------------------------------------------|
G|-4-4-4-4-4-4-4-4-4-4-4-4-4-4-4-4-4-------------------------|
D|-4-4-4-4-4-4-4-4-4-4-4-4-4-4-4-4-4-4h5-5-5-5-4-4-4---------|
A|-2-2-2-2-2-2-2-2-2-2-2-2-2-2-2-2-2-----------------7-7-7-5-|
E|-----------------------------------------------------------|

E|-------|
B|-------|
G|-------|(2x)
D|-------|
A|-5-5-5-|
E|-------|

Intro Cont?d:
e|------------------------------------------------------------|
B|------------------------------------------------------------|
G|------------------------------------------------------------|
D|---4-4-5-7-5-4----------------------------------------------|
A|-5-------------5---4-4-5-7-5-4-----7-7-9-10-9-7-9-----5-----|
E|-----------------5-------------5-7----------------3-3---3-3-|

E|-------|
B|-------|
G|-------|(2x)
D|-------|
A|-5-----|
E|---3-3-|

e|----------------------------------------------------|
B|----------------------------------------------------|
G|----------------------------------------------------|(2x)
D|-7-7-7-7-7-7----------------------------------------|
A|-5-5-5-5-5-5--7-7-7-7-7-7--9-9-9-9-9-9--5-5-5-5-5-5-|
E|--------------5-5-5-5-5-5--7-7-7-7-7-7--3-3-3-3-3-3-|

e|----------------------------------------------------|
B|----------------------------------------------------|
G|-7-7-7-7-7-7----------------------------------------|(2x)
D|-7-7-7-7-7-7--7-7-7-7-7-7--9-9-9-9-9-9--5-5-5-5-5-5-|
A|-5-5-5-5-5-5--7-7-7-7-7-7--9-9-9-9-9-9--5-5-5-5-5-5-|
E|--------------5-5-5-5-5-5--7-7-7-7-7-7--3-3-3-3-3-3-|

e|----------------------------------------------------|
B|----------------------------------------------------|
G|----------------------------------------------------|(2x)
D|-4-4-4-4-4-4-4-2-2-2-2-2-2-2h4-4-4-4-4-4-4-0-2-0----|
A|-------------------------------------------------4--|
E|----------------------------------------------------|

e|-------------------------------------------------------|
B|-------------------------------------------------------|
G|-------------------------------------------------------|
D|-4-4-4-4-4-4-4h5-2-2-2-2-2-2-2h4-4-4-4-4-4-4h5-7-5-4-2-|
A|-------------------------------------------------------|
E|-------------------------------------------------------|

e|----------------------------------------------------------|
B|----------------------------------------------------------|
G|----------------------------------------------------------|
D|-4-4-4-4-4-4-4h5-2-2-2-2-2-2-2h4-4-4-4-4-4h5p4-0--4h5p4-0-|
A|----------------------------------------------------------|
E|----------------------------------------------------------|

E|---------------|
B|---------------|
G|---------------|
D|-4h5p4h5p4h5-0-|
A|---------------|
E|---------------|

Verse:
e|-------------------------------------------------|
B|-------------------------------------------------|
G|-7-7-7-7-7-7-------------------------------------|(2x)
D|-7-7-7-7-7-7-7-7-7-7-7-7-9-9-9-9-9-9-5-5-5-5-5-5-|
A|-5-5-5-5-5-5-7-7-7-7-7-7-9-9-9-9-9-9-5-5-5-5-5-5-|
E|-------------5-5-5-5-5-5-7-7-7-7-7-7-3-3-3-3-3-3-|

e|------------------------------------------------------|
B|------------------------------------------------------|
G|11-------11-------11----9-----9-----9---11-----11-----|
D|---12-12----12-12----12---7-7---7-7---7----9-9----9-9-|
A|------------------------------------------------------|
E|------------------------------------------------------|

E|------------------------------|
B|------------------------------|
G|-11---------------------------|
D|----9-12-------12-------12----|
A|---------10-10----10-10----10-|
E|------------------------------|

Chorus:
e|------------------------------------------|
B|------------------------------------------|
G|--7-7-7-7-7-9-9-9-9-9---------------------|
D|--7-7-7-7-7-9-9-9-9-9-7-7-7-7-7-5-5-5-5-5-|
A|--5-5-5-5-5-7-7-7-7-7-7-7-7-7-7-5-5-5-5-5-|
E|----------------------5-5-5-5-5-3-3-3-3-3-|

Riff:
e|-------------------------------------------------------|
B|-------------------------------------------------------|
G|-------------------------------------------------------|
D|-4-4-4-4-4-4-4h5-2-2-2-2-2-2-2h4-4-4-4-4-4-4h5-7-5-4-2-|
A|-------------------------------------------------------|
E|-------------------------------------------------------|

e|----------------------------------------------------------|
B|----------------------------------------------------------|
G|----------------------------------------------------------|
D|-4-4-4-4-4-4-4h5-2-2-2-2-2-2-2h4-4-4-4-4-4h5p4-0--4h5p4-0-|
A|----------------------------------------------------------|
E|----------------------------------------------------------|

E|---------------|
B|---------------|
G|---------------|
D|-4h5p4h5p4h5-0-|
A|---------------|
E|---------------|

Verse:
e|-------------------------------------------------|
B|-------------------------------------------------|
G|-7-7-7-7-7-7-------------------------------------|
D|-7-7-7-7-7-7-7-7-7-7-7-7-9-9-9-9-9-9-5-5-5-5-5-5-|
A|-5-5-5-5-5-5-7-7-7-7-7-7-9-9-9-9-9-9-5-5-5-5-5-5-|
E|-------------5-5-5-5-5-5-7-7-7-7-7-7-3-3-3-3-3-3-|

e|---------------------------------------------------|
B|---------------------------------------------------|
G|---------------------------------------------------|
D|-4-4-4-4-4-4-4-4--2-2-2-2-2-2-2-2--4-4-4-4-4-4-4-4-|
A|---------------------------------------------------|
E|---------------------------------------------------|

E|-----------------|
B|-----------------|
G|-----------------|
D|-0-0-0-0-0-0-0-0-|
A|-----------------|
E|-----------------|

Interlude:
e|-------------------------------------------------------|
B|-------------------------------------------------------|
G|-7-----------------------------------------------------|
D|-7-4-5-7-5-4---7-------------9-------------5-----------|
A|-5-------------7-4-5-7-5-4---9-6-7-9-7-6---5-2-3-5-3-2-|
E|---------------5-------------7-------------3-----------|

Outro: Let Ring
e|---|
B|---|
G|-5-|
D|-5-|
A|-3-|
E|---|

Тональность:

Это должно быть в ТОП-листе! - Топ-лист композиций



Назад
Рекомендуем посмотреть другие песни исполнителя «Blink 182»:

  • Комменты Fb ()
  • Комменты ВК



Добавить в Избранное Браузера
Сохранить здесь Очистить


x

0


+
-

+
-

-

Авторизация





Зарегистрироваться

M

Дата и время

  • 08:47:54
     

Социальные ссылки


Наши приложения

  • Muzbank App Play Market
  • Muzbank Amazon App