MUZBANK


МУЗЫКАЛЬНО-ИНФОРМАЦИОННЫЙ БАНК





BBlink 182 • For The Kids (аккорды и текст - chords & lyrics)


421

Print

Видео «For The Kids (Blink 182)»

Видео клипы к песне подбираются автоматически сайтом youtube. Возможны некоторые несоответствия клипов песне.

↑ Спрятать рекламу ↑





Главная Мелодия:

E|---------------------------------------------------------|
B|---------------------------------------------------------|
G|---------------------------------------------------------|
D|--0--7-0-0-4-0--0--7-0-0-4-0--0--4-0-0-5-0--0--2-2-4-2-0-|
A|-5-5-----------4-4-----------2-2-----------0-0-----------|
E|---------------------------------------------------------| x2

Куплет:

E|---------------------------------------------------------|
B|------3------3------3------3------3------3------3------3-|
G|------2------2------2------2------2------2------2------2-|
D|-0-0----0-0----0-0----0-0--------------------------------|
A|-----------------------------2-2----2-2----2-2----2-2----|
E|---------------------------------------------------------|

E|---------------------------------------------------------|
B|------3------3------3------3------5------5------2------2-|
G|------2------2------2------2------2------2------2------2-|
D|---------------------------------------------------------|
A|-0-0----0-0----0-0----0-0----0-0----0-0----0-0----0-0----|
E|---------------------------------------------------------| x2

Припев:

E|--------------------------------------------------------|
B|--------------------------------------------------------|
G|--------------------------------------------------------|
D|-5-5-5-5-5-5-5-5-5-5-5-5-5-4-4-4-4-4-4-4-4-4-4-4-4-4-4-4|
A|-5-5-5-5-5-5-5-5-5-5-5-5-5-5-5-5-5-5-5-5-5-5-5-5-5-5-5-5|
E|-5-5-5-5-5-5-5-5-5-5-5-5-5-5-5-5-5-5-5-5-5-5-5-5-5-5-5-5| x4

Соло Пианино:

E|---------|
B|-3--3---5|
G|-2--2---4|
D|---------|
A|---------|
E|---------| x4

Тональность:

Это должно быть в ТОП-листе! - Топ-лист композиций



Назад
Рекомендуем посмотреть другие песни исполнителя «Blink 182»:

  • Комменты Fb ()
  • Комменты ВК



Добавить в Избранное Браузера
Сохранить здесь Очистить


x

0


+
-

+
-

-

Авторизация





Зарегистрироваться

M

Дата и время

  • 19:25:58
     

Социальные ссылки


Наши приложения

  • Muzbank App Play Market
  • Muzbank Amazon App