MUZBANK


МУЗЫКАЛЬНО-ИНФОРМАЦИОННЫЙ БАНК





BBlink 182 • Mutt (аккорды и текст - chords & lyrics)


470

Print

Видео «Mutt (Blink 182)»

Видео клипы к песне подбираются автоматически сайтом youtube. Возможны некоторые несоответствия клипов песне.

↑ Спрятать рекламу ↑






Intro
e|-------------------------------------------------------------|
B|-------------------------------------------------------------|
G|-------------------------------------------------------------|
D|-----2-----2-----2-----2-----2-------2------2-------2------2-|
A|-0-0---0-0---0-0---0-0---0-0----0-0----0-0-----0-0----0-0----|
E|-------------------------------------------------------------|

e|-------------------------------------------------------------|
B|-------------------------------------------------------------|
G|-------------------------------------------------------------|
D|-------------------------------------------------------------|
A|-----2-----2-----2-----2-----2-------2------2-------2------2-|
E|-0-0---0-0---0-0---0-0---0-0----0-0----0-0-----0-0----0-0----|

     Guitar 1    (2x)
e|-------------------------------------------------------------|
B|----2------2-------2------2-------2-------2-------2-------2--|
G|--2------2-------2------2-------2-------2-------2-------2----|
D|2----2-2-----2-2----2-2-----2-0-----0-0-----0-0-----0-0-----0|
A|-------------------------------------------------------------|
E|-------------------------------------------------------------|

     Guitar 2  (clean) (2x)
e|-----------------------------------------------------|
B|-----------------------------------------------------|
G|--------------4-4-4-4-4-4-4--7-7--6-6----------------|
D|-7-7-7-7-7-7--4-4-4-4-4-4-4--7-7--6-6--7-7-7-7-7-7-7-|
A|-7-7-7-7-7-7--2-2-2-2-2-2-2--5-5--4-4--7-7-7-7-7-7-7-|
E|-5-5-5-5-5-5---------------------------5-5-5-5-5-5-5-|

Verse    (2x)
e|--------------------------------------------------|
B|--------------------------------------------------|
G|----------------------------------------------7---|
D|-7-7-7-7-7-7-7--4-4-4-4-4-4-4--2-2-2-2-2-2-2--7-7-|
A|-7-7-7-7-7-7-7--4-4-4-4-4-4-4--2-2-2-2-2-2-2--5-7-|
E|-5-5-5-5-5-5-5--2-2-2-2-2-2-2--0-0-0-0-0-0-0----5-|
     p.m........    p.m........    p.m........

e|--------------------------------------------------|
B|--------------------------------------------------|
G|----------------------------------------------7---|
D|-7-7-7-7-7-7-7--4-4-4-4-4-4-4--2-2-2-2-2-2-2--7-7-|
A|-7-7-7-7-7-7-7--4-4-4-4-4-4-4--2-2-2-2-2-2-2--5-7-|
E|-5-5-5-5-5-5-5--2-2-2-2-2-2-2--0-0-0-0-0-0-0----5-|

e|-------------------------------------------------------------|
B|-------------------------------------------------------------|
G|----------------------------------------7-7-7-7-7-7-9-9-9-9-9|
D|7-7-7-7-7-7-7-4-4-4-4-4-4-2-2-2-2-2-2-2-7-7-7-7-7-7-9-9-9-9-9|
A|7-7-7-7-7-7-7-4-4-4-4-4-4-2-2-2-2-2-2-2-5-5-5-5-5-5-7-7-7-7-7|
E|5-5-5-5-5-5-5-2-2-2-2-2-2-0-0-0-0-0-0-0----------------------|

Chorus
     Guitar 1  (clean)
e|---------------------------------------|
B|---------------------------------------|
G|---------------------------------------|
D|-7--7--7--7--7--7--7--7--7--7--7--7--7-|
A|-7--7--7--7--7--7--7--7--7--7--7--7--7-|
E|-5--5--5--5--5--5--5--5--5--5--5--5--5-|
     Guitar 2  (clean)
e|---------------------------------|
B|---------------------------------|
G|-------------4------------7-6----|
D|-7-----------4------------7-6--7-|
A|-7-----------2------------5-4--7-|
E|-5-----------------------------5-|

   play 2 times
e|-------------------------------------------------------------|
B|----2------2-------2-------2-------2-------2-------2-------2-|
G|--2------2-------2-------2-------2-------2-------2-------2---|
D|2----2-2-----2-2-----2-2-----2-0-----0-0-----0-0-----0-0----0|
A|-------------------------------------------------------------|
E|-------------------------------------------------------------|

Verse    (2x)
e|--------------------------------------------------|
B|--------------------------------------------------|
G|----------------------------------------------7---|
D|-7-7-7-7-7-7-7--4-4-4-4-4-4-4--2-2-2-2-2-2-2--7-7-|
A|-7-7-7-7-7-7-7--4-4-4-4-4-4-4--2-2-2-2-2-2-2--5-7-|
E|-5-5-5-5-5-5-5--2-2-2-2-2-2-2--0-0-0-0-0-0-0----5-|
     p.m........    p.m........    p.m........

e|--------------------------------------------------|
B|--------------------------------------------------|
G|----------------------------------------------7---|
D|-7-7-7-7-7-7-7--4-4-4-4-4-4-4--2-2-2-2-2-2-2--7-7-|
A|-7-7-7-7-7-7-7--4-4-4-4-4-4-4--2-2-2-2-2-2-2--5-7-|
E|-5-5-5-5-5-5-5--2-2-2-2-2-2-2--0-0-0-0-0-0-0----5-|

e|-------------------------------------------------------------|
B|-------------------------------------------------------------|
G|----------------------------------------7-7-7-7-7-7-9-9-9-9-9|
D|7-7-7-7-7-7-7-4-4-4-4-4-4-2-2-2-2-2-2-2-7-7-7-7-7-7-9-9-9-9-9|
A|7-7-7-7-7-7-7-4-4-4-4-4-4-2-2-2-2-2-2-2-5-5-5-5-5-5-7-7-7-7-7|
E|5-5-5-5-5-5-5-2-2-2-2-2-2-0-0-0-0-0-0-0----------------------|

Chorus
     Guitar 1  (clean)
e|---------------------------------------|
B|---------------------------------------|
G|---------------------------------------|
D|-7--7--7--7--7--7--7--7--7--7--7--7--7-|
A|-7--7--7--7--7--7--7--7--7--7--7--7--7-|
E|-5--5--5--5--5--5--5--5--5--5--5--5--5-|
     Guitar 2  (clean)
e|---------------------------------|
B|---------------------------------|
G|-------------4------------7-6----|
D|-7-----------4------------7-6--7-|
A|-7-----------2------------5-4--7-|
E|-5-----------------------------5-|

Bridge  (2x)
e|------------------------------|
B|------------------------------|
G|-----------4-4-------7-6------|
D|-7-7-------4-4-------7-6--7-7-|
A|-7-7-------2-2-------5-4--7-7-|
E|-5-5----------------------5-5-|
   p.m.........................

   play 2 times
e|-------------------------------------------------------------|
B|----2------2-------2-------2-------2-------2-------2------2--|
G|--2------2-------2-------2-------2-------2-------2------2----|
D|2----2-2-----2-2-----2-2-----2-0-----0-0-----0-0----0-0-----0|
A|-------------------------------------------------------------|
E|-------------------------------------------------------------|

Outro  (2x)
e|------------------------------|
B|------------------------------|
G|-----------4-4-------7-6------|
D|-7-7-------4-4-------7-6--7-7-|
A|-7-7-------2-2-------5-4--7-7-|
E|-5-5----------------------5-5-|
   p.m.........................

Тональность:

Это должно быть в ТОП-листе! - Топ-лист композиций



Назад
Рекомендуем посмотреть другие песни исполнителя «Blink 182»:

  • Комменты Fb ()
  • Комменты ВК



Добавить в Избранное Браузера
Сохранить здесь Очистить


x

0


+
-

+
-

-

Авторизация





Зарегистрироваться

M

Дата и время

  • 07:41:20
     

Социальные ссылки


Наши приложения

  • Muzbank App Play Market
  • Muzbank Amazon App