MUZBANK


МУЗЫКАЛЬНО-ИНФОРМАЦИОННЫЙ БАНК





BBlink 182 • Online Songs (аккорды и текст - chords & lyrics)


350

Print

Видео «Online Songs (Blink 182)»

Видео клипы к песне подбираются автоматически сайтом youtube. Возможны некоторые несоответствия клипов песне.

↑ Спрятать рекламу ↑






Строй :EADGBE

Intro Pt. 1                Intro Pt.2
E|---------------------------------------|
B|---------------------------------------|
G|---------------------------------------|
D|-------------0---0-0-------------------|
A|-0-0---7---0---0-----------0-0---7---7-|
E|-----9---9---------------------9---9---|

Riff A (Palm Mute)         Riff A (Ending)
E|--------------------------------------|
B|--------------------------10-10-10-10-|
G|---------------------------9--9--9--9-|
D|---------------------------7--7--7--7-|
A|-0-4-0-7-4-0-5-0-5-5------------------|
E|--------------------------------------|

Bridge
E|---|
B|---|
G|---|
D|-7-|
A|-7-|
E|-5-|

Riff B
E|-----------------------------------------|
B|-----------------------------------------|
G|-7-7-7-7-7-----------9-9-9-9-9-7-7-7-7-7-|
D|-7-7-7-7-7-7-7-7-7-7-9-9-9-9-9-7-7-7-7-7-|
A|-5-5-5-5-5-7-7-7-7-7-7-7-7-7-7-5-5-5-5-5-|
E|-----------5-5-5-5-5---------------------|

Riff C Pt.1
E|----------------------------------------------------------|
B|----------------------------------------------------------|
G|-----7-7--------------------------7-7-----------9-9-9-9-9-|
D|-4-4-7-7-7-7-7-7-7-2-2-2-2-2--4-4-7-7-7-7-7-7-7-9-9-9-9-9-|
A|-4-4-5-5-7-7-7-7-7-2-2-2-2-2--4-4-5-5-7-7-7-7-7-7-7-7-7-7-|
E|-2-2-----5-5-5-5-5-0-0-0-0-0--2-2-----5-5-5-5-5-----------|

Riff C Pt.2
E|-----------------------------------------|
B|-----------------------------------------|
G|-----------7-7-7-7-7---------------------|
D|-4-4-4-4-4-7-7-7-7-7-7-7-7-7-7-2-2-2-2-2-|
A|-4-4-4-4-4-5-5-5-5-5-7-7-7-7-7-2-2-2-2-2-|
E|-2-2-2-2-2-----------5-5-5-5-5-0-0-0-0-0-|

Riff C Pt.2
E|-----------------------------------------|
B|-----------------------------------------|
G|-----------7-7-7-7-7-----------9-9-9-9-9-|
D|-4-4-4-4-4-7-7-7-7-7-7-7-7-7-7-9-9-9-9-9-|
A|-4-4-4-4-4-5-5-5-5-5-7-7-7-7-7-7-7-7-7-7-|
E|-2-2-2-2-2-----------5-5-5-5-5-----------|

Консовка
E|-------------|
B|-------------|
G|---------x-7-|
D|-4-4-4-4-x-7-|
A|-4-4-4-4-x-5-|
E|-2-2-2-2-----|


Intro Pt.1      x 3
Intro Pt.2      x 1
Riff A          x 4
Riff A Ending   x 1
Bridge          x 1
Riff A          x 4
Riff A Ending   x 1
Bridge          x 1
Pick Slide
Riff B          x 2
Bridge          x 1
Pick Slide
Riff B          x 4
Riff C Pt.1     x 1
Riff C Pt.2     x 1
Riff B          x 4
Ending

Тональность:

Это должно быть в ТОП-листе! - Топ-лист композиций



Назад
Рекомендуем посмотреть другие песни исполнителя «Blink 182»:

  • Комменты Fb ()
  • Комменты ВК



Добавить в Избранное Браузера
Сохранить здесь Очистить


x

0


+
-

+
-

-

Авторизация





Зарегистрироваться

M

Дата и время

  • 15:29:06
     

Социальные ссылки


Наши приложения

  • Muzbank App Play Market
  • Muzbank Amazon App