MUZBANK


МУЗЫКАЛЬНО-ИНФОРМАЦИОННЫЙ БАНК





BBlink 182 • Reckless abandon (аккорды и текст - chords & lyrics)


494

Print

Видео «Reckless abandon (Blink 182)»

Видео клипы к песне подбираются автоматически сайтом youtube. Возможны некоторые несоответствия клипов песне.

↑ Спрятать рекламу ↑





Riff A Pt.1
E|-------------------------------------------------|
B|-------------------------------------------------|
G|-44444-44444-44444-44444-------------------------|
D|-44444-44444-44444-44444-22222-22222-22222-22222-|
A|-22222-22222-22222-22222-22222-22222-22222-22222-|
E|-------------------------00000-00000-00000-00000-|

Riff A Pt.2
E|---------------------------------------|
B|---------------------------------------|
G|---------------------------------------|
D|-66666-66666-44444-44444-22222-22222-2-|
A|-66666-66666-44444-44444-22222-22222-2-|
E|-44444-44444-22222-22222-00000-00000-0-|

Riff B
E|------------------------------------------------|
B|------------------------------------------------|
G|------------------------------------------------|
D|-1-----4-2----1----4-2----1----4-2----1---1-2---|
A|----2------------2-----------2----------2-----4-|
E|------------------------------------------------|

Bridge (Let ring through verse)
E|---|
B|---|
G|-4-|
D|-4-|
A|-2-|
E|---|

Interlude
E|------------|
B|------------|
G|------------|
D|-4--2--6--4-|
A|-2--2--6--4-|
E|------------|

Riff C
E|-------------------------------------------------|
B|-------------------------------------------------|
G|-44444-44444-44444-44444-------------------------|
D|-44444-44444-44444-44444-44444-44444-44444-44444-|
A|-22222-22222-22222-22222-44444-44444-44444-44444-|
E|-------------------------22222-22222-22222-22222-|

Last Chord
E|---|
B|---|
G|-4-|
D|-4-|
A|-2-|
E|---|

Order:
Riff A Pt.1  x 1
Riff A Pt.2  x 1
Riff B       x 2
Bridge       x 1
Riff A Pt.1  x 1
Riff A Pt.2  x 2
Riff B       x 2
Bridge       x 1
Riff A Pt.1  x 1
Riff A Pt.2  x 2
Interlude    x 4
Riff C       x 2
Riff A Pt.1  x 1
Riff A Pt.2  x 2
Last Chord

Тональность:

Это должно быть в ТОП-листе! - Топ-лист композиций



Назад
Рекомендуем посмотреть другие песни исполнителя «Blink 182»:

  • Комменты Fb ()
  • Комменты ВК



Добавить в Избранное Браузера
Сохранить здесь Очистить


x

0


+
-

+
-

-

Авторизация





Зарегистрироваться

M

Дата и время

  • 23:53:31
     

Социальные ссылки


Наши приложения

  • Muzbank App Play Market
  • Muzbank Amazon App