MUZBANK



A MOST COMPLETE BANK OF MUSIC INFORMATION

МУЗЫКАЛЬНО-ИНФОРМАЦИОННЫЙ БАНК





BBlink 182 • TV (аккорды и текст - chords & lyrics)


332

Print

Видео «TV (Blink 182)»

Видео клипы к песне подбираются автоматически сайтом youtube. Возможны некоторые несоответствия клипов песне.

↑ Спрятать рекламу ↑






Intro:
e|-----------------------------------------------------------|
B|-----------------------------------------------------------|
G|-----------------------------------------------------------|
D|-----------------------3-----3---3-------------------------|
A|-----3-----3---3-/-1-1---1-1---1---/-----3-----3---3-/-1-1-|
E|-1-1---1-1---1---/-----------------/-1-1---1-1---1---/-----|

E|-------------|                                        X 2
B|-------------|
G|-------------|
D|-3-----3---3-|
A|---1-1---1---|
E|-------------|

e|---------------------------------------------------------|
B|---------------------------------------------------------|
G|---------------------------------------------------------|
D|-----------------------3-----3---3--------10-----10---10-|
A|-----3-----3---3-/-1-1---1-1---1---/--8-8----8-8----8----|
E|-1-1---1-1---1---/-----------------/---------------------|

E|-------------------|
B|-------------------|
G|-------------------|
D|-------3-----3---3-|
A|-/-1-1---1-1---1---|
E|-/-----------------|

e|-----------------------------------------------------------|
B|-----------------------------------------------------------|
G|-----------------------------------------------------------|
D|-----------3-3-3-3-------------3-3-3-3-------------3-3-3-3-|
A|-3-3-3-3-/-1-1-1-1-/-3-3-3-3-/-1-1-1-1-/-3-3-3-3-/-1-1-1-1-|
E|-1-1-1-1-/---------/-5-5-5-5-/---------/-1-1-1-1-/---------|

E|------------|
B|------------|
G|--------3-3-|
D|--------3-3-|
A|/-5-5-/-1-1-|
E|/-3-3-/-----|

Distortion kicks in....
e|----------------------------------|
B|----------------------------------|
G|------------------3-3-3-3-3-3-3-3-|
D|-3-3-3-3-3-3-3-3--3-3-3-3-3-3-3-3-|x4
A|-3-3-3-3-3-3-3-3--1-1-1-1-1-1-1-1-|
E|-1-1-1-1-1-1-1-1------------------|

e|------------------------------------|
B|------------------------------------|
G|------------------------------------|
D|-3-3-3-3--5-5-5-5--7-7-7-7--8-8-8-8-|
A|-3-3-3-3--5-5-5-5--7-7-7-7--8-8-8-8-|
E|-1-1-1-1--3-3-3-3--5-5-5-5--6-6-6-6-|

Verse:
e|--------------------------|
B|--------------------------|
G|--------------3-3-3-3-1-0-|
D|-3-3-3-3-1-0--3-3-3-------|x4
A|-3-3-3--------1-1-1-------|
E|-1-1-1--------------------|
pm ...    ...

Chorus:
e|-----------------------------------------------|
B|----------------------6-4-3--------------------|
G|------------3-3-3-3-3-------------------3-3-3/-|
D|-3-3-3-3-3--3-3-3-3-3--------3-3-3-3-3--3-3-3/-|
A|-3-3-3-3-3--1-1-1-1-1--------3-3-3-3-3--1-1-1/-|
E|-1-1-1-1-1-------------------1-1-1-1-1---------|

Solo:
e|-----------------------------------------------------|
B|-----------------------------------------------------|
G|-----5-----5-----6-9-7------4-7-5------7-5-0-0-------|
D|-----------------------------------------------7-5-0-|x2
A|-3-3---3-3---6-6--------0-0--------0-0---------------|
E|-----------------------------------------------------|
pm ...   ...   ...        ...        ...

BASS:
intro:
G|---------------10--10-10---------------10--10-10-|
D|---10--10-10-88--88--8-----10--10-10-88--88--8---|
A|-88--88--8---------------88--88--8---------------|
E|-------------------------------------------------|

G|---------------10--10-10-|
D|---10--10-10-88--88--8---|
A|-88--88--8---------------|
E|-------------------------|

intro (cont.):
G|------17------17--17---10--10-10-|
D|-15-15--15-15---15---88--88--8---|
A|---------------------------------|
E|---------------------------------|

intro (part 2):
G|5555-10101010-7777-10101010-5555-10101010-7777-10101010-|
D|3333-8-8-8-8--5555-8-8-8-8--3333-8-8-8-8--5555-8-8-8-8--|
A|--------------------------------------------------------|
E|--------------------------------------------------------|

Chorus:
G|-----3333----3333-|
D|-3333----5555-----|
A|------------------|
E|------------------|

Mark throws this in every now and then...just listen for it:
G|-------------------------|
D|-33333-55555-77777-88888-|
A|-------------------------|
E|-------------------------|
Verse: (repeat many times...)

Тональность:

Это должно быть в ТОП-листе! - Топ-лист композиций



Назад
Рекомендуем посмотреть другие песни исполнителя «Blink 182»:

  • Комменты Fb ()
  • Комменты ВК



Добавить в Избранное Браузера
Сохранить здесь Очистить


x

0


+
-

+
-

-

Авторизация





Зарегистрироваться

M

Дата и время

  • 06:40:05
     

Социальные ссылки


Наши приложения

  • Muzbank App Play Market
  • Muzbank Amazon App