MUZBANK


МУЗЫКАЛЬНО-ИНФОРМАЦИОННЫЙ БАНК





BBlink 182 • What`s My Age Again (аккорды и текст - chords & lyrics)


756

Print

Видео «What`s My Age Again (Blink 182)»

Видео клипы к песне подбираются автоматически сайтом youtube. Возможны некоторые несоответствия клипов песне.

↑ Спрятать рекламу ↑





Verse
G|---------------------| |-------------------------------|
D|---------------------| x5 |-------------------------------|
A|-4444------6666-8888-| |-4444------6666-6666-8888-8888-|
E|------4444-----------| |------4444---------------------|

Chorus
G|---------------------| |------------------------------------|
D|---------------------| x3 |-------------------------------6~~~-|
A|------6-66-8-88-4-44-| |------6-66-8888-8888-6666-6666-4~~~-|
E|-4-44----------------| |-4-44-------------------------------|
I'm not sure if that last note is a chord or not
Verse
G|---------------------| |-------------------------------|
D|---------------------| x3 |-------------------------------|
A|-4444------6666-8888-| |-4444------6666-6666-8888-8888-|
E|------4444-----------| |------4444---------------------|

Chorus
G|---------------------| |-------------------------------|
D|---------------------| x3 |-------------------------------|
A|------6-66-8-88-4-44-| |------6-66-8888-8888-6666-6666-|
E|-4-44----------------| |-4-44--------------------------|

Interlude
G|------------------------------|
D|---10------8------6------8----|
A|-8----8~-6---6~-4---4~-6---6~-|
E|------------------------------|

G|---------------------------------------------|
D|----10------10------8------8------6------6---| x2
A|-88----8-88----8-66---6-66---6-44---4-44---4-|
E|---------------------------------------------|

G|-----------------------------------------------------|
D|----10------10------8------8------6---6666-8888-8888-|
A|-88----8-88----8-66---6-66---6-44---4-4444-6666-6666-|
E|-----------------------------------------------------|

Chorus x2
G|---------------------| |-------------------------------|
D|---------------------| x3 |-------------------------------|
A|------6-66-8-88-4-44-| |------6-66-8888-8888-6666-6666-|
E|-4-44----------------| |-4-44--------------------------|

Last Chorus
G|---------------------| |------------------------------------|
D|---------------------| x3 |-------------------------------6~~~-|
A|------6-66-8-88-4-44-| |------6-66-8888-8888-6666-6666-4~~~-|
E|-4-44----------------| |-4-44-------------------------------|

Тональность:

Это должно быть в ТОП-листе! - Топ-лист композиций



Назад
Рекомендуем посмотреть другие песни исполнителя «Blink 182»:

  • Комменты Fb ()
  • Комменты ВК



Добавить в Избранное Браузера
Сохранить здесь Очистить


x

0


+
-

+
-

-

Авторизация





Зарегистрироваться

M

Дата и время

  • 19:25:23
     

Социальные ссылки


Наши приложения

  • Muzbank App Play Market
  • Muzbank Amazon App