MUZBANK


МУЗЫКАЛЬНО-ИНФОРМАЦИОННЫЙ БАНК





BBlondie • Atomic (аккорды и текст - chords & lyrics)


842

Print

Видео «Atomic (Blondie)»

Видео клипы к песне подбираются автоматически сайтом youtube. Возможны некоторые несоответствия клипов песне.

↑ Спрятать рекламу ↑






C A
Tonight make it right
D Em
Uh huh make me tonight
C
Tonight
A
Tonight
D Em
Oh uh huh make it magnificent
C
Tonight
A
Right
F C
Oh your hair is beautiful
Dm G
Oh tonight

Atomic

BRIDGE SAME AS INTRO

D Em
Uh huh make me tonight
C
Tonight
A
Tonight
F C
Oh your hair is beautiful
Dm G
Oh tonight
Atomic

BRIDGE SAME AS INTRO

Dm Bb
Tonight make it magnificent
G
Tonight
C Am Dm Bb
Make me tonight
G
Your hair is beautiful
C Am Dm
Oh tonight
Bb
Atomic
G C Am
Atomic

solo:

E|----------------------------------------------------------|
B|----------------------------------------------------------|
G|----------------------------------------------------------|
D|----------------------------------------------------------|
A|--0---8---7---5-------0---8---7---5-----0---0---8---7---5-|
E|----------------------------------------------------------|

E|----------------------------------------------------------|
B|----------------------------------------------------------|
G|----------------------------------------------------------|
D|----------------------------------------------------------|
A|--0---8---7---5-------0---8---7---5-----0---0---8---7---5-|
E|----------------------------------------------------------|

Intro:
E|-----------------------------------------------|
B|-----------------------------------------------|
G|-----------------------------------------------|
D|-----5--4----2-------5--4----2-------5--4----2-|
A|--2---------------2---------------2------------|
E|-----------------------------------------------|

E|-------------------------------------------|
B|-------------------------------------------|
G|--------------------4---(2)(4)-------------|
D|-----5--4⁄⁄7------------------------5----4-|
A|--2------------------------------2---------|
E|-------------------------------------------|


Тональность:

Это должно быть в ТОП-листе! - Топ-лист композиций



Назад
Рекомендуем посмотреть другие песни исполнителя «Blondie»:

  • Комменты Fb ()
  • Комменты ВК



Добавить в Избранное Браузера
Сохранить здесь Очистить


x

0


+
-

+
-

-

Авторизация





Зарегистрироваться

M

Дата и время

  • 12:40:55
     

Социальные ссылки


Наши приложения

  • Muzbank App Play Market
  • Muzbank Amazon App