MUZBANK


МУЗЫКАЛЬНО-ИНФОРМАЦИОННЫЙ БАНК





BBlondie • Maria (аккорды и текст - chords & lyrics)


762

Print

Видео «Maria (Blondie)»

Видео клипы к песне подбираются автоматически сайтом youtube. Возможны некоторые несоответствия клипов песне.

↑ Спрятать рекламу ↑






 Проигрыш:
Играть надо на аккустическом звуке с очень легким драйвом.
Ноты которые играются без глушения я обозначу (*).
Сильная доля идет на "раз": раз два три; раз два три; 
раз два.  

RIFF 1: 
   *     *     *    *     *     *    *     *     *    *     *     *
a--7-7-7-7-7-7-7-7--6-6-6-6-6-6-6-6--4-4-4-4-4-4-4-4--2-2-2-2-2-2-2-2--|
e--5-5-5-5-5-5-5-5--4-4-4-4-4-4-4-4--2-2-2-2-2-2-2-2--0-0-0-0-0-0-0-0--|

   *     *     *    *     *     *    *     *     *    *     *     *
d-------------------9-9-9-9-9-9-9-9--7-7-7-7-7-7-7-7--7-7-7-7-7-7-7-7--|  
a--7-7-7-7-7-7-7-7--7-7-7-7-7-7-7-7--5-5-5-5-5-5-5-5--5-5-5-5-5-5-5-5--|
e--5-5-5-5-5-5-5-5-----------------------------------------------------|
Дальше такой же ритмический рисунок.

Куплет:
 
RIFF 2:
d-----------------------------------------------------7-7-7-7-7-7-7-7--|
a--7-7-7-7-7-7-7-7--2-2-2-2-2-2-2-2--4-4-4-4-4-4-4-4--5-5-5-5-5-5-5-5--|
e--5-5-5-5-5-5-5-5--0-0-0-0-0-0-0-0--2-2-2-2-2-2-2-2-------------------|


d------------------------------------6/7-7-7--6/7-7-7--6/7-7-7--6/7-7-7-|
a--7-7-7-7-7-7-7-7--2-2-2-2-2-2-2-2--4/5-5-5--4/5-5-5--4/5-5-5--4/5-5-5-|
e--5-5-5-5-5-5-5-5--0-0-0-0-0-0-0-0-------------------------------------|

RIFF 3: 
d--7-7-7-7-7-7-7-7--9-9-9-9-9-9-9-9-------------------------------------|
а--5-5-5-5-5-5-5-5--7-7-7-7-7-7-7-7--4-4-4--2-4-4-4--2-4----------------|
е------------------------------------2-2-2--0-2-2-2--0-2--0-2-4-5-4-2-0-|  

Припев:
Играется как в куплете. 


A                         E
She moves like she donґt care
F#m                      D
Smooth as silk, cool as air 
A        E                D
Ooh, it makes you wanna cry 
            
She doesnґt know your name 
And your heart beats like a subway train 
Ooh, it makes you wanna die 
D               E         F#m
Ooh, donґt ya wanna take her 
D               E           F#m
Ooh, wanna make her all your own

Maria, youґve got to see her
Go insane and out of your mind 
Regina, ave Maria 
A million and one candle lights
            
Iґve seen this thing before 
In my best friend and the boy next door 
Fool for love and full of fire
            
Wonґt come in from the rain
Sheґs oceans running down the drain
Blue as ice and desire
Donґt you wanna make her
Ooh, donґt you wanna take her home
Maria, youґve got to see her
Go insane and out of your mind
Regina, ave Maria
A million and one candle lights
Ooh, donґt you wanna break her
Ooh, donґt you wanna take her home
            
She walks like she donґt care
Walking on imported air
Ooh, it makes you wanna die
Maria, youґve got to see her
Go insane and out of your mind
Regina, ave Maria
A million and one candle lights
            
Maria, youґve got to see her
Go insane and out of your mind
Regina, ave Maria
A million and one candle lights
     
Maria, youґve got to see her
Go insane and out of your mind
Regina, ave Maria
A million and one candle lights 

Тональность:

Это должно быть в ТОП-листе! - Топ-лист композиций



Назад
Рекомендуем посмотреть другие песни исполнителя «Blondie»:

  • Комменты Fb ()
  • Комменты ВК



Добавить в Избранное Браузера
Сохранить здесь Очистить


x

0


+
-

+
-

-

Авторизация





Зарегистрироваться

M

Дата и время

  • 15:32:58
     

Социальные ссылки


Наши приложения

  • Muzbank App Play Market
  • Muzbank Amazon App