MUZBANK


МУЗЫКАЛЬНО-ИНФОРМАЦИОННЫЙ БАНК





BBlur • Bluremi (аккорды и текст - chords & lyrics)


465

Print

Видео «Bluremi (Blur)»

Видео клипы к песне подбираются автоматически сайтом youtube. Возможны некоторые несоответствия клипов песне.

↑ Спрятать рекламу ↑





e-7--7--7-----5-5-5--5-5-5--5-5-5---
B-7--7--7-----5-5-5--5-5-5--5-5-5---
G-8--8--8-----6-6-6--6-6-6--6-6-6--- x2
D-9--9--9-----7-7-7--7-7-7--7-7-7---
A-9--9--9-----0-0-0--5-5-5--0=0=0---
E-7--7--7-----x-x-x--x-x-x--x-x-x---

little opening distorted riff;
(DONE REALLY QUICKLY)
e------------------------------------
B------------------------------------
G------------------------------------
D------------------------------------
A-7776655443-------------------------
E------------------------------------
(B) (A) (D) (E)
e-------------------------------------
B-------------------------------------
G-----------------7-7-x--x-9-9-9-9----
D--9--9--7-7-7-x--7-7-x--x-9-9-9-9----
A--9--9--7-7-7-x--5-5-x-7x-7-7-7-7----
E--7--7--5-5-5-x----------------------

B A D E
Group using a loop
B A D E
Of another pop group
B A D E
Group shooting a hoop
B A D E
And starving it up in to the soup
B A D E
'Cause I'm of regular features
B A D E
And Adidas trainers
B A D E
Completing the cycle
B A D E
Until the teenage maniacs
B A D E
Can bring it on back

B D B A
B L U R E M I (4x)


B A D E
Group using a loop
B A D E
Of another pop group
B A D E
Completing the cycle
B A D E
Until the teenage maniacs
B A D E
They'll bring it all back

B D B A
B L U R E M I (4x)

Тональность:

Это должно быть в ТОП-листе! - Топ-лист композиций



Назад
Рекомендуем посмотреть другие песни исполнителя «Blur»:

  • Комменты Fb ()
  • Комменты ВК



Добавить в Избранное Браузера
Сохранить здесь Очистить


x

0


+
-

+
-

-

Авторизация





Зарегистрироваться

M

Дата и время

  • 20:00:46
     

Социальные ссылки


Наши приложения

  • Muzbank App Play Market
  • Muzbank Amazon App