MUZBANK


МУЗЫКАЛЬНО-ИНФОРМАЦИОННЫЙ БАНК





BBlur • End Of A Century (аккорды и текст - chords & lyrics)


404

Print

Видео «End Of A Century (Blur)»

Видео клипы к песне подбираются автоматически сайтом youtube. Возможны некоторые несоответствия клипов песне.

↑ Спрятать рекламу ↑





G: (355433) C:(x32010) Eb : (xx1043)
F6 : (xx3231) G-F#: (2554xx) D : (xx0232)
F-A : (x03211) Em : (022000) Bm7 : (x24232)
Fmaj7sus2 : (xx3010) G-D : (xx0003) Am7 : (x02010)

G F6 F-A Fmaj7sus2 G F6 C
E|-----15-13--------13--------------15-13-------8--|
B|-----15-15--------13--13----------15-15-------8--|
G|-16--------14-14----------12---16--------14---9--|
D|----------------------14----------------------10-|
A|-------------------------------------------------|
E|-------------------------------------------------|

G G-F#
She says there's ants in the carpet
Em G-D
Dirty little monsters
Eb D
Eating all the morsels
Bm7 C
Picking up the rubbish A|-3--2--0-----|
E|----------0--|

G G-F#
Give her effervescence
Em G-D
She needs a little sparkle
Eb D
Good morning TV
Bm7 C
You're looking so healthy
Em D
We all say, don't want to be alone
Em D
We wear the same clothes cos we feel the same
Em D C
And kiss with dry lips when we say goodnight

End of a century Oh, it's nothing special

G G-F#
Sex on the TV
Em G-D
Everybody's at it
Eb D
And the mind gets dirty
Bm7 C
As you get closer to thirty
G G-F#
He gives her a cuddle
Em G-D
Glowing in a huddle
Eb D
Good night TV
Bm7 C
You're all made up

And you're looking like
Em
me
We all say, don't want to be alone
We wear the same clothes cos we feel the same
And kiss with dry lips when we say goodnight
End of a century
Oh, it's nothing special

G G-F# Em G-D Eb D Bm7 C
E|--------10-10/12-------------------------14-10-7-8-7-8-7-8-|
B|-10-8-10--------12-10-12-10-8-11-13-10---------------------|
G|---------------------------------------7-------------------|
D|-----------------------------------------------------------|
A|-----------------------------------------------------------|
E|-----------------------------------------------------------|

G F6 Am7 Fmaj7sus2 G F6 C
Can you eat her yes you can

We all say, don't want to be alone
We wear the same clothes cos we feel the same
And kiss with dry lips when we say goodnight
End of a century
Oh, it's nothing special

We all say, don't want to be alone
We wear the same clothes cos we feel the same
And kiss with dry lips when we say goodnight
End of a century
Oh, it's nothing special

We all say, don't want to be alone
We wear the same clothes cos we feel the same
C
And kiss with dry lips when we say goodnight
End of a century
Oh, it's nothing special
Oh, end of a century
F F# G G-F#
Oh, it's nothing special

Em G-D Eb D C G

Тональность:

Это должно быть в ТОП-листе! - Топ-лист композиций



Назад
Рекомендуем посмотреть другие песни исполнителя «Blur»:

  • Комменты Fb ()
  • Комменты ВК



Добавить в Избранное Браузера
Сохранить здесь Очистить


x

0


+
-

+
-

-

Авторизация





Зарегистрироваться

M

Дата и время

  • 15:17:31
     

Социальные ссылки


Наши приложения

  • Muzbank App Play Market
  • Muzbank Amazon App