MUZBANK


МУЗЫКАЛЬНО-ИНФОРМАЦИОННЫЙ БАНК





BBlur • Mellow Song (аккорды и текст - chords & lyrics)


543

Print

Видео «Mellow Song (Blur)»

Видео клипы к песне подбираются автоматически сайтом youtube. Возможны некоторые несоответствия клипов песне.

↑ Спрятать рекламу ↑





VERSE 1
-------------------------------------------
-----2-----0-----2-----3-----2-----0-----2-
-----2-----0-----2-----3-----2-----0-----2-
---2-----0-----2-----3-----2-----0-----2---
-0-----------0-----1-----0-----------0-----
-------3-----------------------3-----------
I live my streak? on the guillotine Bullet away

(Pause) A to fade
-------------------------------2---------------
-----1-----0-----1-----0-------3-----2-------2-
-----2-----0-----2-----0-------------------2---
---3-----0-----3-----0-------------2-----2-----
---------------------------------0-----0-------
1------3-----1-----3---------------------------
in my machine wherever been I love you

-------------------------------------------
-----2-----0-----2-----3-----2-----0-----2-
-----2-----0-----2-----3-----2-----0-----2-
---2-----0-----2-----3-----2-----0-----2---
-0-----------0-----1-----0-----------0-----
-------3-----------------------3-----------
She stars in my left arm its an alcohol load
(Pause) A to var C
-------------------------------2---------------
-----1-----0-----1-----0-------3-----2-------2-
-----2-----0-----2-----0-------------------2---
---3-----0-----3-----0-------------2-----2-----
---------------------------------0-----0-------
1------3-----1-----3---------------------------
giving away time to Cassy O. sunday so got soul

CHORUS
-----0-----0---------1-----1---------2-------3-------2-------3-
---1-----1-----1---2-----2-----2-----3-------3-------3-------3-
-----------------------------------4-------4-------4-------4---
-----------------0-----0-----0---4-----4-5-----5-4-----4-5-----
-3-----3-----3-------------------------------------------------
---------------------------------------------------------------
Is this where I'm going to? We'll see... We'll see, we'll see
-------2-------3-------2-----3------4-
-------3-------3-------3-----3------4-
-----4-------4-------4-------4----5---
-5-4-----4-5-----5-4-----4-5----6-----
--------------------------------------
--------------------------------------
We'll see, we'll see
VERSE 2
-------------------------------------------
-----2-----0-----2-----3-----2-----0-----2-
-----2-----0-----2-----3-----2-----0-----2-
---2-----0-----2-----3-----2-----0-----2---
-0-----------0-----1-----0-----------0-----
-------3-----------------------3-----------
I'll kill this sleak humble man in the moon walking on sand

(Pause) A to fade
-------------------------------2---------------
-----1-----0-----1-----0-------3-----2-------2-
-----2-----0-----2-----0-------------------2---
---3-----0-----3-----0-------------2-----2-----
---------------------------------0-----0-------
1------3-----1-----3---------------------------
on my own high noon Love with the moon down I -
love you


Cos' I live my streak on the guillotine
Bullet away in my machine
forgive where I've been - I
forget you

CHORUS
-----0-----0---------1-----1---------2-------3-------2-------3-
---1-----1-----1---2-----2-----2-----3-------3-------3-------3-
-----------------------------------4-------4-------4-------4---
-----------------0-----0-----0---4-----4-5-----5-4-----4-5-----
-3-----3-----3-------------------------------------------------
---------------------------------------------------------------
Is this where I'm going to? We'll see...

-------2-------3-------2-----3------4-
-------3-------3-------3-----3------4-
-----4-------4-------4-------4----5---
-5-4-----4-5-----5-4-----4-5----6-----
--------------------------------------
--------------------------------------

Тональность:

Это должно быть в ТОП-листе! - Топ-лист композиций



Назад
Рекомендуем посмотреть другие песни исполнителя «Blur»:

  • Комменты Fb ()
  • Комменты ВК



Добавить в Избранное Браузера
Сохранить здесь Очистить


x

0


+
-

+
-

-

Авторизация





Зарегистрироваться

M

Дата и время

  • 01:20:24
     

Социальные ссылки


Наши приложения

  • Muzbank App Play Market
  • Muzbank Amazon App