MUZBANK


МУЗЫКАЛЬНО-ИНФОРМАЦИОННЫЙ БАНК





BBlur • Time (аккорды и текст - chords & lyrics)


423

Print

Видео «Time (Blur)»

Видео клипы к песне подбираются автоматически сайтом youtube. Возможны некоторые несоответствия клипов песне.

↑ Спрятать рекламу ↑





E|-------------------|--------------|----------------|
B|-------------------|--------------|----------------|
G|-------------------|--------------|----------------|
D|--2---2---0---0---0|-----2---2---0|---0---0--------|
A|-------------------|--------------|----------------|
E|0---0---2---2---2--|-2-0---0---2--|-2---2---2------|

E|-------------------|--------------|----------------|
B|-------------------|--------------|----------------|
G|-------------------|--------------|----------------|
D|--2---2---0---0---0|-----2---2---0|---0---0--------|
A|-------------------|--------------|----------------|
E|0---0---2---2---2--|-2-0---0---2--|-2---2---2------|

E|-------------------|--------------|----------------|
B|-------------------|--------------|----------------|
G|-------------------|--------------|----------------|
D|--2---2---0---0---0|-----2---2---0|---0---0--------|
A|-------------------|--------------|----------------|
E|0---0---2---2---2--|-2-0---0---2--|-2---2---2------|

E|-------------------
B|-------------------
G|-------------------
D|--2---2---0---0---0
A|-------------------
E|0---0---2---2---2--

E|-------------------|--------------|----------------|----------
B|-------------------|--------------|----------------|----------
G|------------2---2--|-----0-----2--|-2--------------|----------
D|---2---2--3---3----|---2---2-3---3|----------------|----------
A|-------------------|--------------|----------------|----------
E|-0---0----2--------|-0------------|----------------|----------





E|-------------------|--------------|----------------|----------
B|-------------------|--------------|----------------|----------
G|-----0------2---2--|-----0-----2--|-2--------------|----------
D|---2---2--3---3----|---2---2-3---3|----------------|----------
A|-------------------|--------------|----------------|----------
E|-0-----------------|-0------------|----------------|----------


E|-------------------|--------------|----------------|----------
B|-------------------|--------------|----------------|----------
G|------------2---0--|--------------|-0-----0-----0--|----------
D|---2---2--3---3----|---2---2----3-|-----3-----3----|----------
A|-------------------|----------5---|---5-----5------|----------
E|-0---0----2--------|-0---0--------|----------------|----------




E|-------------------|--------------|----------------|----------
B|-------------------|--------------|----------------|----------
G|------------2---0--|-----------2--|-2-------0-----0|-----0----
D|---2---2--3---3----|---2---2-3---3|-------3-----3--|---3------
A|-------------------|--------------|-----5-----5----|-5--------
E|-0---0----2--------|-0---0--------|---0------------|----------


E|-------------------|--------------|----------------|----------
B|-------------------|--------------|----------------|----------
G|------------2---0--|--------------|-0-----0-----0--|----------
D|---2---2--3---3----|---2---2----3-|-----3-----3----|----------
A|-------------------|----------5---|---5-----5------|----------
E|-0---0----2--------|-0---0--------|----------------|----------

E|-------------------|--------------|----------------|----------
B|-------------------|--------------|----------------|----------
G|------------2---0--|-----------2--|-2-------0-----0|-----0----
D|---2---2--3---3----|---2---2-3---3|-------3-----3--|---3------
A|-------------------|--------------|-----5-----5----|-5--------
E|-0---0----2--------|-0---0--------|---0------------|----------



E|-------------------|-1---------1----|-17-16-15-14----|--------
B|-------------------|-1---------1----|----------------|--------
G|-5-5-5-7-7-7-5-5-5-|-2-5-5-5-5-2----|----------------|--------
D|-5-5-5-7-7-7-5-5-5-|-3-5-5-5-5-3----|----------------|--------
A|-3-3-3-5-5-5-3-3-3-|-3-3-3-3-3-3----|----------------|--------
E|-------------------|-1---------1----|----------------|--------

E|-------------------|-------------|----------------|----------
B|-------------------|-------------|----------------|----------
G|-5-5-5-5-5-5-5-5-5-|------7------|-7--------------|---------
D|-5-5-5-5-5-5-5-5-5-|------7------|-7--------------|---------
A|-3-3-3-3-3-3-3-3-3-|------5------|-5--------------|---------
E|-------------------|-------------|----------------|----------

E|-------------------|-1---------1----|-17-16-15-14----|--------
B|-------------------|-1---------1----|----------------|--------
G|-5-5-5-7-7-7-5-5-5-|-2-5-5-5-5-2----|----------------|--------
D|-5-5-5-7-7-7-5-5-5-|-3-5-5-5-5-3----|----------------|--------
A|-3-3-3-5-5-5-3-3-3-|-3-3-3-3-3-3----|----------------|--------
E|-------------------|-1---------1----|----------------|--------

E|-------------------|-------------|----------------|----------
B|-------------------|-------------|----------------|----------
G|-5-5-5-5-5-5-5-5-5-|------7------|-7--------------|---------
D|-5-5-5-5-5-5-5-5-5-|------7------|-7--------------|---------
A|-3-3-3-3-3-3-3-3-3-|------5------|-5--------------|---------
E|-------------------|-------------|----------------|----------

solo

E|-------------------|--------------|----------------|
B|-5-8-10-12-12-5-8--|5-------------|-----------5-5--|
G|-------------------|--5-7-------9-|-7-5-4-4-4------|
D|-------------------|------5-7-----|----------------|
A|-------------------|----------7---|----------------|
E|-------------------|--------------|----------------|

E|-------------------|--------------|----------------|
B|-5-8-10-12-12-5-8--|5-------------|----------------|
G|-------------------|--5-7-------9-|-7-5-4-4-4------|
D|-------------------|------5-7-----|----------------|
A|-------------------|----------7---|----------------|
E|-------------------|--------------|----------------|


E|-------------------|-1---------1----|-17-16-15-14----|--------
B|-------------------|-1---------1----|----------------|--------
G|-5-5-5-7-7-7-5-5-5-|-2-5-5-5-5-2----|----------------|--------
D|-5-5-5-7-7-7-5-5-5-|-3-5-5-5-5-3----|----------------|--------
A|-3-3-3-5-5-5-3-3-3-|-3-3-3-3-3-3----|----------------|--------
E|-------------------|-1---------1----|----------------|--------

E|-------------------|-------------|----------------|----------
B|-------------------|-------------|----------------|----------
G|-5-5-5-5-5-5-5-5-5-|------7------|-7--------------|---------
D|-5-5-5-5-5-5-5-5-5-|------7------|-7--------------|---------
A|-3-3-3-3-3-3-3-3-3-|------5------|-5--------------|---------
E|-------------------|-------------|----------------|----------

E|-------------------|-1---------1----|-17-16-15-14----|--------
B|-------------------|-1---------1----|----------------|--------
G|-5-5-5-7-7-7-5-5-5-|-2-5-5-5-5-2----|----------------|--------
D|-5-5-5-7-7-7-5-5-5-|-3-5-5-5-5-3----|----------------|--------
A|-3-3-3-5-5-5-3-3-3-|-3-3-3-3-3-3----|----------------|--------
E|-------------------|-1---------1----|----------------|--------

E|-------------------|-------------|----------------|----------
B|-------------------|-------------|----------------|----------
G|-5-5-5-5-5-5-5-5-5-|-------------|-5--------------|---------
D|-5-5-5-5-5-5-5-5-5-|-------------|-5--------------|---------
A|-3-3-3-3-3-3-3-3-3-|-------------|-3--------------|---------
E|-------------------|-------------|----------------|----------

Тональность:

Это должно быть в ТОП-листе! - Топ-лист композиций



Назад
Рекомендуем посмотреть другие песни исполнителя «Blur»:

  • Комменты Fb ()
  • Комменты ВК



Добавить в Избранное Браузера
Сохранить здесь Очистить


x

0


+
-

+
-

-

Авторизация





Зарегистрироваться

M

Дата и время

  • 01:32:50
     

Социальные ссылки


Наши приложения

  • Muzbank App Play Market
  • Muzbank Amazon App