MUZBANK


МУЗЫКАЛЬНО-ИНФОРМАЦИОННЫЙ БАНК





BBon Jovi • It`s My Life (аккорды и текст - chords & lyrics)


6722

Print

Видео «It`s My Life (Bon Jovi)»

Видео клипы к песне подбираются автоматически сайтом youtube. Возможны некоторые несоответствия клипов песне.

↑ Спрятать рекламу ↑





Am  Em  G   C   F
E|----0-------0---0---1------------------|
B|----1---0---2---1---1------------------| 
G|----2---0---0---0---2------------------|
D|----2---2---0---2---3------------------|
A|----0---2---2---3---3------------------| 
E|--------0---3---0---1------------------|




Am			    Em		  G

This ain`t a song for the broken hearted
   Am		      Em	    G
A silent prayer for faith departed
   Am			 Em
I ain`t gonna be just a face in the crowd
	      C			    G		Am
You`re gonna hear my voice when I shout it out loud



(Chorus)
	 Am	   F	         C
It`s my life, it`s now or never
	        G	    Am
I ain`t gonna live forever
		 F	       C    Em  G
I just want to live when I`m alive
	 Am			   F		C
It`s my life; my heart is like an open highway
		          G  Am
Like franky said I did it my way,
	       F	     Em
I just wanna live when I`m alive
Em   G   C
It`s my life


Intro
E|----------1-0--------------------|
B|--------5-----1--1----1--0-------| 
G|------5----------2----------2----|
D|---/7------------3---------------|
A|---------------------------------| 
E|---------------------------------|



Am		       Em	    	 G
This is for ones who stood their ground
      Am	      Em	  	G
Like Tommy and Gina, never backed down
Am			       C
Tomorrow`s getting harder make no mistake
Em			       G	     Am
Luck ain`t even lucky got to make your own breaks


(Chorus)

	 Am	   F	         C
It`s my life, it`s now or never
	        G	    Am
I ain`t gonna live forever
		 F	       C    Em  G
I just want to live when I`m alive
	 Am			   F		C
It`s my life; my heart is like an open highway
		          G  Am
Like franky said I did it my way,
	       F	     Em
I just wanna live when I`m alive
Em   G   C
It`s my life


(Bridge)

      G				      C

You better stand tall when they`re calling you out
       Am		     Em		G
Don`t bend don`t break baby don`t back down 


(Chorus)


	 Am	   F	         C
It`s my life, it`s now or never
	        G	    Am
I ain`t gonna live forever
		 F	       C    Em  G
I just want to live when I`m alive
	 Am			   F		C
It`s my life; my heart is like an open highway
		          G  Am
Like franky said I did it my way,
	       F	     Em
I just wanna live when I`m alive

Em   G   C
It`s my life


E|----------1-0---------------1-0-------------|
B|--------5-----1-----------5-----1-----1-----|
G|------5---------2-------5-------------2-----|
D|---/7----------------/7---------------2-----|
A|--------------------------------------------|
E|--------------------------------------------|

Тональность:

Отправитель: Jovie

Это должно быть в ТОП-листе! - Топ-лист композиций



Назад
Рекомендуем посмотреть другие песни исполнителя «Bon Jovi»:

  • Комменты Fb ()
  • Комменты ВК



Добавить в Избранное Браузера
Сохранить здесь Очистить


x

0


+
-

+
-

-

Авторизация





Зарегистрироваться

M

Дата и время

  • 10:04:10
     

Социальные ссылки


Наши приложения

  • Muzbank App Play Market
  • Muzbank Amazon App