MUZBANK


МУЗЫКАЛЬНО-ИНФОРМАЦИОННЫЙ БАНК





ББони неМ • Плачет девочка с автоматом (аккорды и текст - chords & lyrics)


2020

Print

Видео «Плачет девочка с автоматом (Бони неМ)»

Видео клипы к песне подбираются автоматически сайтом youtube. Возможны некоторые несоответствия клипов песне.

↑ Спрятать рекламу ↑






Tuning D

Intro
Gtr 1 and Gtr 2 (clean electric)                      x4
E|----0--0--x---0--0--0--x---2--2--x---4--4--4--x-----|
B|*---1--1--x---1--1--1--x---3--3--x---5--5--5--x----*|
G|----2--2--x---0--0--0--x---2--2--x---4--4--4--x-----|
D|----2--2--x---2--2--2--x---0--0--x------------x-----|
A|*---0--0--x---3--3--3--x---------------------------*|
E|----------------------------------------------------|
-  +  -   +  -  +  -   +  -  +   +  +  +  +
«-» - бьем вниз, «+» - соответственно, вверх...

Verse
Gtr 1 and Gtr 2
E|---------------------------------------------------|
B|---------------------------------------------------|
G|---------------------------------------------------|
D|-----------------------7-----7-----7---------------|
A|---2-----2-----2-------------------5-5-5-5-5-5-5-5-|
E|-000000000000--0-0-0-0-0-0-0-0---000000000000------|

Gtr 1 and Gtr 2
E|-------------------------------------------------------------|
B|-------------------------------------------------------------|
G|-------------------------------------------------------------|
D|------5-----5----3-------------------------------------------|
A|-5-----5-----5---3-3-3-3-3-3-3-3-------------7-----7-----7---|
E|-3-3-3-3-3-3-3-3-----------------00000000000-5-5-5-5-5-5-5-5-|

Gtr 1 and Gtr 2
E|------------------------------------------------|
B|------------------------------------------------|
G|------------------------------------------------|
D|-------5-----5-----3----------------------------|
A|-5-----5-----5----3-3-3-3-3-3-3-3---------------|
E|-3-3-3-3-3-3-3-3-------------------000000000000-|

E|-----------------------------------------|
B|-----------------------------------------|
G|-----------------------------------------|
D|-2--5--7----2--5--8--7---2—-5--7----5—-2-|
A|-0--3--5----0—-3--6--5---0--3--5----3--0-|
E|-----------------------------------------|

Gtr 1 and Gtr 2
E|------------------------------------------------------|
B|------------------------------------------------------|
G|------------------------------------------------------|
D|--------------------------------------7-----7-----7---|
A|------2-----2-----2-------------------5-5-5-5-5-5-5-5-|
E|----000000000000--0-0-0-0-0-0-0-0---000000000000------|

Gtr 1 and Gtr 2                                              x2
E|-------------------------------------------------------------|
B|*-----------------------------------------------------------*|
G|-------------------------------------------------------------|
D|-------5-----5----3------------------------------------------|
A|*-5-----5-----5---3-3-3-3-3-3-3-3-----------7-----7-----7---*|
E|--3-3-3-3-3-3-3-3-----------------000000000-5-5-5-5-5-5-5-5--|

Solo rhythm
Gtr 1
E|---------------------------------------------------|
B|---------------------------------------------------|
G|---------------------------------------------------|
D|-5--5--5--5---7--7--7--7---9--9--9--9--------------|
A|-7--7--7--7---3--3--3--3---5--5--5--5---7--7--7--7-|
E|-5--5--5--5----------------------------------------|

что-то вроде Соло
Gtr 2                       x3
E|---------------------------------------------------|
B|*-------------------------*------------------------|
G|---------------------------------------------------|
D|------7-5-7--10-9-7-5------|---12fb—12fb—12fb—12fb-|
A|*-------------------------*------------------------|
E|---------------------------------------------------|
fb – full bend

Outro
Gtr 1 and Gtr 2
__Плачет девочка в автомате ___перепачканное лицо
E|----------------------------------------------------|
B|----------------------------------------------------|
G|----------------------------------------------------|
D|----------------------------------------------------|
A|---55555555-----------3333333------------------7--5-|
E|-000000000000000000000000-----------77777777--------|

 Вся в слезах и губной памаде!
E|----------------------------|
B|----------------------------|
G|----------------------------|
D|----------------------------|
A|-7/-------------------------|
E|--00000000---------5—-3—-5/-|

Тональность:

Это должно быть в ТОП-листе! - Топ-лист композиций



Назад
Рекомендуем посмотреть другие песни исполнителя «Бони неМ»:

  • Комменты Fb ()
  • Комменты ВК



Добавить в Избранное Браузера
Сохранить здесь Очистить


x

0


+
-

+
-

-

Авторизация





Зарегистрироваться

M

Дата и время

  • 05:39:48
     

Социальные ссылки


Наши приложения

  • Muzbank App Play Market
  • Muzbank Amazon App