MUZBANK


МУЗЫКАЛЬНО-ИНФОРМАЦИОННЫЙ БАНК





BBowie David • Star (аккорды и текст - chords & lyrics)


530

Print

Видео «Star (Bowie David)»

Видео клипы к песне подбираются автоматически сайтом youtube. Возможны некоторые несоответствия клипов песне.

↑ Спрятать рекламу ↑





INTRO x4
|-------------------|-------------------|
|.------------------|-5-5-5-5--5-5-5-5-.|
|.-3-3-3-3--3-3-3-3-|------------------.|
|-------------------|-------------------|

VERSE
[00:14]
|------------------|-------------------|-----------------|--------------|
|------------------|-5-5-5-5--5-5-5-5--|-----------------|-5-5-5-5--5-4-|
|-3-3-3-3--3-3-3-3-|-------------------|-3-3-3-3--3-3-3-3|--------------|
|------------------|-------------------|-----------------|--------------|
[00:21]
|----------------------|---2-0-----------|------------------|
|-2---2----------0-1-2-|-0-----2---0-----|-----------5----5-|
|----------2---2-------|---------------3-|-3--2---0---------|
|----------------------|-----------------|------------------|
[00:27]
|------------------|-------------------|-----------------|--------------|
|------------------|-5-5-5-5--5-5-5-5--|-----------------|-5-5-5-5--5-4-|
|-3-3-3-3--3-3-3-3-|-------------------|-3-3-3-3--3-3-3-3|--------------|
|------------------|-------------------|-----------------|--------------|
[00:34]
|-------0---1----2-|-----------------------|-----------------|
|-2----------------|-0---------0-----------|----------5~~~~~~|
|------------------|----0---3-------3----2-|-3--2--0---------|
|------------------|-----------------------|-----------------|


[00:40] #
|----------2-2----|----0-0--4-4-0-0-|----2-2--5-5-2-2-|----7-5--4-------|
|0-0-4-4------4-4-|2-2--------------|3-3--------------|5-5---------4--2-|
|-----------------|-----------------|-----------------|-----------------|
|-----------------|-----------------|-----------------|-----------------|

|--------------------|-7-------------------|-----------------|
|-2--2----5--6--7--7-|----7--5------0------|----------5~~~~--|
|--------------------|----------7-------3--|-3--2--0---------|
|--------------------|---------------------|-----------------|

[00:52] # #
|-5-5---5-5--5-5---|--3-3---3-3---3-3----|-5-5--5-5--5-5----|-3-------|
|----------------5-|-------------------3-|-----------------5|-----3~~~|
|------------------|---------------------|------------------|---------|
|------------------|---------------------|------------------|---------|

CHORUS # # #
[01:01]
|------------2--4-|-5-5-5-5--5-0---|------------2-4-|-5-5-5-5--5--0----|
|-2-2-2-2--2------|--------------4-|-2-2-2-2--2-----|----------------4-|
|-----------------|----------------|----------------|------------------|
|-----------------|----------------|----------------|------------------|

|-------------------|-----------------|--------------|-----------------|
|-2-2-2-2--2--2---2-|-0-0-0-0--0-5--3-|---------3----|--5--------------|
|-------------------|-----------------|-6------------|-----------------|
|-------------------|-----------------|--------------|-----------------|


[01:15]
|------------------|------------------|------------------|---------------|
|------------------|-5-5-5-5--5-5-5-5-|------------------|-5-5-5-5--5--4-|
|-3-3-3-3--3-3-3-3-|------------------|-3-3-3-3--3-3-3-3-|---------------|
|------------------|------------------|------------------|---------------|

|----9-----7----|----2---------|------------------|------------|
|-------9-----9-|-0-----2--0---|----------5~~~~~~-|--5---------|
|-7-------------|------------4-|-3--1--0----------|------------|
|---------------|--------------|------------------|------------|

[01:28] Repeat #

[01:40] Repeat # #

[01:49] Repeat CHORUS # # #

[02:01] [02:10] _____
SLOW OUTRO BIT x2| 2.
|---------------|------------|--------------|------------|-------------|-----|
|.-5----5---5---|-4-----4--3-|-2--------2---|-0----------|------------.|-5---|
|.--------------|------------|--------------|----------0-|---3--------.|-----|
|---------------|------------|--------------|------------|-------------|-----|

[02:23]
|--------------|--5-------5-4-5-4-|-3-----3---3-------|-3---3--3---2--|
|------------5-|-------5----------|-----------------3-|---------------|
|-3~~~~~~~~~---|------------------|-------------------|---------------|
|--------------|------------------|-------------------|---------------|

|--1---1--1----1-|--1-----3--------5-----3------|-------|
|----------------|----------------------------6-|--5----|
|----------------|------------------------------|-------|
|----------------|------------------------------|-------|

Тональность:

Это должно быть в ТОП-листе! - Топ-лист композиций



Назад
Рекомендуем посмотреть другие песни исполнителя «Bowie David»:

  • Комменты Fb ()
  • Комменты ВК



Добавить в Избранное Браузера
Сохранить здесь Очистить


x

0


+
-

+
-

-

Авторизация





Зарегистрироваться

M

Дата и время

  • 17:51:36
     

Социальные ссылки


Наши приложения

  • Muzbank App Play Market
  • Muzbank Amazon App