MUZBANK


МУЗЫКАЛЬНО-ИНФОРМАЦИОННЫЙ БАНК





BBullet For My Valentine • The End (аккорды и текст - chords & lyrics)


811

Print

Видео «The End (Bullet For My Valentine)»

Видео клипы к песне подбираются автоматически сайтом youtube. Возможны некоторые несоответствия клипов песне.

↑ Спрятать рекламу ↑





Key: Eb

Tuning: Standard EADGBe

Chords used:
Cm - x35543
G# - 466544
Eb - x68886
Bb - x13331
Fm - 133111
Gm - 355333


Intro: Cm(plucking) x8
e|----------------------------------|
B|-----4---3-----4------4---3-------|
G|--------------------------------5-|
D|---5---5---5--------5---5---5-----| x3
A|-3-----------3----3-----------3---|
E|----------------------------------|

e|------------------------------------|
B|-----4---3-----4/6------4---3-------|
G|----------------------------------5-|
D|---5---5---5----------5---5---5-----|
A|-3-----------3------3-----------3---|
E|------------------------------------|

e|-----------------------------------------------------------|
B|-----4---3-----4---3-----------------4---3-----4---3---4/6-|
G|-------------------------3-3-5-3---------------------------|
D|---5---5---5-----5-----------------5---5---5-----5---5-----|
A|-3-----------3-------3-3---------3-----------3-------------|
E|-----------------------------------------------------------|

e|-------------------------------------------------|
B|-----4---3-----4---3-----------------4---3-------|
G|-------------------------3-3-5-3---------------5-|
D|---5---5---5-----5-----------------5---5---5-----|
A|-3-----------3-------3-3---------3-----------3---|
E|-------------------------------------------------|


Verse 1:

Sing:
Cm
  Your hair reminds me of
a time when we once were
Your fingernails that marked
my back now rot in earth
The sheets we slept in blew
away and now the storm is over
The taste of you inside my
mouth remains but still I’m hearing


Refrain:

Sing:
Cm
  There’s no love
everybody’s crying
There’s no truth
everyone’s misguiding


Chorus:

Growl:
Eb
  And now the end is here
Fm
  There’s no more pills to swallow
Gm
  The bitter taste I feel
      Cm
won’t lead me to tomorrow


Verse 2:

Sing:
Cm
  Your scent reminds me
of a place we used to go
The kisses placed upon my
neck show signs of

Growl:
Cm
no return

Sing:
Cm
  The bed we fucked in smells the
same but now the stench is fading
The taste of you inside my mouth
remains but still I’m hearing


(Repeat Refrain and Chorus)


Bridge:

Growl:
Cm
Cries for anger
lies for power
Fighting for nothing
is what you were born
for Cries for anger
lies for power
Fighting for nothing

Sing:
is what you were born for
(Repeat)

Cm(hold)


Interlude: Eb--Cm--F#--Cm--Eb--Cm----| x4
G#---Eb--Cm--F#--Cm--Eb--Cm----------| x2
G#--Bb--
Cm(plucking like intro) x4


(Repeat Bridge)


Growl:
Cm x4
for!!!!

Тональность:

Это должно быть в ТОП-листе! - Топ-лист композиций



Назад
Рекомендуем посмотреть другие песни исполнителя «Bullet For My Valentine»:

  • Комменты Fb ()
  • Комменты ВК



Добавить в Избранное Браузера
Сохранить здесь Очистить


x

0


+
-

+
-

-

Авторизация





Зарегистрироваться

M

Дата и время

  • 06:38:20
     

Социальные ссылки


Наши приложения

  • Muzbank App Play Market
  • Muzbank Amazon App