MUZBANK


МУЗЫКАЛЬНО-ИНФОРМАЦИОННЫЙ БАНК





BBullet For My Valentine • Venom (аккорды и текст - chords & lyrics)


1147

Print

Видео «Venom (Bullet For My Valentine)»

Видео клипы к песне подбираются автоматически сайтом youtube. Возможны некоторые несоответствия клипов песне.

↑ Спрятать рекламу ↑





You′re nowhere even near me
But everywhere I go I feel you
Can you feel me?
Why can′t I just forget you?
I wanna shed my skin to remove you
Can you hear me?

Now I′m giving up, I′m never looking back
Here we go again
You keep giving me a taste of your venom
You know I′m never looking back
Here we go again
I don′t want another taste of your venom

How dare you play the victim?
These tortured eyes, they see right through you
Right through you
But still you keep me captive
And make me feel like I deserve you
But I hate you, hate you

Now I′m giving up, I′m never looking back
Here we go again
You keep giving me a taste of your venom
You know I′m never looking back
Here we go again
I don′t want another taste of your venom

I feel asphyxiated
It′s more than I can take
But nothing ever changes in the end
No more I′m suffocating
You′ve gone and lost your grip
But nothing ever changes in the end

Here we go again
But I hate you, hate you

Now I′m giving up, I′m never looking back
Here we go again
You keep giving me a taste of your venom
You know I′m never looking back
Here we go again
I don′t want another taste of your venom

Giving up, never looking back
Here we go again
You keep giving me a taste of your venom
You know I′m never looking back
Here we go again
I don′t want another taste of your venom


Tuning: Drop C



[Intro]
(0:00 - 0:26)


Guitar 1

   1   &   2   &   3   &   4   &     1   &   2   &   3   &   4   &    
D|---------------------------------|---------------------------------|
A|---------------------------------|---------------------------------|
F|-4-------4---5-------5---4-------|-4---2-------2---0---0---2---2---| 
C|---------------------------------|---------------------------------|
G|---------------------------------|---------------------------------|
C|---------------------------------|---------------------------------|(x2)
   .       .   .       .   .         .   .       .   .   .   .   .

   1   &   2   &   3   &   4   &     1   &   2   &   3   &   4   &    
D|---------------------------------|---------------------------------|
A|---------------------------------|---------------------------------|
F|-0-------0---2-------2---5-------|-5---4-------4---0---0---2---2---|
C|---------------------------------|---------------------------------|
G|---------------------------------|---------------------------------|
C|---------------------------------|---------------------------------|
   .       .   .       .   .         .   .       .   .   .   .   .

   1   &   2   &   3   &   4   &     1   &   2   &   3   &   4   &    
D|---------------------------------|---------------------------------|
A|---------------------------------|---------------------------------|
F|-2-------2---4-------4---7-------|-7---5-------5---9---9---7---7---|
C|---------------------------------|---------------------------------|
G|---------------------------------|---------------------------------|
C|---------------------------------|---------------------------------|
   .       .   .       .   .         .   .       .   .   .   .   .

Guitar 2 rests for the intro


[Verse 1] 
(0:26 - 0:53)

Guitar 1 repeats the intro riff twice, 
but still does the four muted strums at the end

Guitar 2

After one run of guitar 1′s intro, come in with:

   1   &   2   &   3   &   4   &     1   &   2   &   3   &   4   &    
D|-------------------------8~~~~~~~|(8)------------------------------|
A|---------------------------------|---------------------------------|
F|-------------9~~~~~~~~~~~~~~~~~~~|(9)------------------------------|
C|-7~~~~~~~~~~~~~~~~~~~~~~~~~~~~~~~|(7)------------------------------|
G|---------------------------------|---------------------------------|
C|---------------------------------|---------------------------------|

Why can′t I just forget you?

   1   &   2   &   3   &   4   &     1   &   2   &   3   &   4   &    
D|-------------------------3~~~~~~~|(3)------------------------------|
A|-------------1~~~~~~~~~~~~~~~~~~~|(1)------------------------------|
F|-0~~~~~~~~~~~~~~~~~~~~~~~~~~~~~~~|(0)------------------------------|
C|---------------------------------|---------------------------------|
G|---------------------------------|---------------------------------|
C|---------------------------------|---------------------------------|

...remooooooove you

   1   &   2   &   3   &   4   &     1   &   2   &   3   &   4   &    
D|-8~~~~~~~~~~~7~~~~~~~~~~~--------|---------------------------------|
A|-------------------------8~~~~~~~|(8)------------------------------|
F|---------------------------------|---------------------------------|
C|---------------------------------|-----------------x---x---x---x---|
G|---------------------------------|-----------------x---x---x---x---|
C|---------------------------------|-----------------x---x---x---x---|

...heeeeeaaaar me?                                   Now I′m


[Chorus] 
(0:53 - 1:19)

Guitar 1

   1   &   2   &   3   &   4   &     1   &   2   &   3   &   4   &    
D|---------------------------------|---------------------------------|
A|---------------------------------|---------------------------------|
F|-2---2---2---2---2---2---2---2---|---------------------------------|
C|-2---2---2---2---2---2---2---2---|-3---3---3---3---3---3---3---3---|
G|-0---0---0---0---0---0---0---0---|-3---3---3---3---3---3---3---3---|
C|---------------------------------|-3---3---3---3---3---3---3---3---|

Giving up!                           I′m never looking back

   1   &   2   &   3   &   4   &     1   &   2   &   3   &   4   &    
D|---------------------------------|---------------------------------|
A|---------------------------------|---------------------------------|
F|---------------------------------|---------------------------------|
C|-5---5---5---5---5---5---5---5---|-5---5---5---5---5---5---5---5---|
G|-5---5---5---5---5---5---5---5---|-5---5---5---5---5---5---5---5---|
C|-5---5---5---5---5---5---5---5---|-5---5---5---5---5---5---5---5---|

                                     Here we go, again!

   1   &   2   &   3   &   4   &     1   &   2   &   3   &   4   &    
D|---------------------------------|---------------------------------|
A|---------------------------------|---------------------------------|
F|-2---2---2---2---2---2---2---2---|-5---5---5---5---5---5---5---5---|
C|-2---2---2---2---2---2---2---2---|-5---5---5---5---5---5---5---5---|
G|-0---0---0---0---0---0---0---0---|-3---3---3---3---3---3---3---3---|
C|---------------------------------|---------------------------------|

You keep giving me a taste

   1   &   2   &   3   &   4   &     1   &   2   &   3   &   4   &    
D|---------------------------------|---------------------------------|
A|---------------------------------|---------------------------------|
F|---------------------------------|---------------------------------|
C|-5---5---5---5---5---5---5---5---|-5---5---5---5---x---x---x---x---|
G|-5---5---5---5---5---5---5---5---|-5---5---5---5---x---x---x---x---|
C|-5---5---5---5---5---5---5---5---|-5---5---5---5---x---x---x---x---|

                                     Of your venom

   1   &   2   &   3   &   4   &     1   &   2   &   3   &   4   &    
D|---------------------------------|---------------------------------|
A|---------------------------------|---------------------------------|
F|-2---2---2---2---2---2---2---2---|---------------------------------|
C|-2---2---2---2---2---2---2---2---|-3---3---3---3---3---3---3---3---|
G|-0---0---0---0---0---0---0---0---|-3---3---3---3---3---3---3---3---|
C|---------------------------------|-3---3---3---3---3---3---3---3---|

You know I′m never looking back

   1   &   2   &   3   &   4   &     1   &   2   &   3   &   4   &    
D|---------------------------------|---------------------------------|
A|---------------------------------|---------------------------------|
F|---------------------------------|---------------------------------|
C|-5---5---5---5---5---5---5---5---|-5---5---5---5---5---5---5---5---|
G|-5---5---5---5---5---5---5---5---|-5---5---5---5---5---5---5---5---|
C|-5---5---5---5---5---5---5---5---|-5---5---5---5---5---5---5---5---|

                                     Here we go, again!

   1   &   2   &   3   &   4   &     1   &   2   &   3   &   4   &    
D|---------------------------------|---------------------------------|
A|---------------------------------|---------------------------------|
F|-2---2---2---2---2---2---2---2---|---------------------------------|
C|-2---2---2---2---2---2---2---2---|-3---3---3---3---3---3---3---3---|
G|-0---0---0---0---0---0---0---0---|-3---3---3---3---3---3---3---3---|
C|---------------------------------|-3---3---3---3---3---3---3---3---|

I don′t want another taste...

   1   &   2   &   3   &   4   &     1   &   2   &   3   &   4   &    
D|---------------------------------|---------------------------------|
A|---------------------------------|---------------------------------|
F|---------------------------------|---------------------------------|
C|-5~------------------------------|(5)------------------------------|
G|-5~------------------------------|(5)------------------------------|
C|-5~------------------------------|(5)------------------------------|

                                    Of your venom...

Guitar 2

   1   &   2   &   3   &   4   &     1   &   2   &   3   &   4   &    
D|---------------------------------|---------------------------------|
A|-5---5---5---5---5---5---5---5---|-5---5---5---5---5---6---6---6---|
F|-5---5---5---5---5---5---5---5---|-5---5---5---5---5---5---5---5---|
C|---------------------------------|---------------------------------|
G|---------------------------------|---------------------------------|---|
C|---------------------------------|---------------------------------|   |
                                                                         |
Giving up                            I′m never looking back              | x4
                                                                         |
   1   &   2   &   3   &   4   &     1   &   2   &   3   &   4   &       |
D|---------------------------------|---------------------------------|   |
A|-3---3---3---3---3---3---3---3---|-3---3---3---3---3---3---3---3---|---|
F|-5---5---5---5---5---5---5---5---|-5---5---5---5---5---5---5---5---|
C|---------------------------------|---------------------------------|
G|-(Last time playing this part, just play one 3,5, leave it to ring)|
C|---------------------------------|---------------------------------|

                                     Here we go, again!



Verse 2 - (1:19 - 1:45) - Same as Verse 1

Chorus (1:45 - 2:12) - //-


[Bridge] 
(2:12 - 2:50)

Guitar 1

   1   &   2   &   3   &   4   &     1   &   2   &   3   &   4   &    
D|---------------------------------|---------------------------------|
A|---------------------------------|---------------------------------|
F|---------------------------------|---------------------------------|
C|-3---3---3---3---3---3---3---3---|-3---3---3---3---3---3---3---3---|
G|-3---3---3---3---3---3---3---3---|-3---3---3---3---3---3---3---3---|
C|-3---3---3---3---3---3---3---3---|-3---3---3---3---3---3---3---3---|

I feel asphyxiated...

   1   &   2   &   3   &   4   &     1   &   2   &   3   &   4   &    
D|---------------------------------|---------------------------------|
A|---------------------------------|---------------------------------|
F|-2---2---2---2---2---2---2---2---|-2---2---2---2---2---2---2---2---|
C|-2---2---2---2---2---2---2---2---|-2---2---2---2---2---2---2---2---|
G|-0---0---0---0---0---0---0---0---|-0---0---0---0---0---0---0---0---|
C|---------------------------------|---------------------------------|

It′s more than I can take.

   1   &   2   &   3   &   4   &     1   &   2   &   3   &   4   &    
D|---------------------------------|---------------------------------|
A|---------------------------------|---------------------------------|
F|---------------------------------|---------------------------------|
C|-3---3---3---3---3---3---3---3---|-3---3---3---3---3---3---3---3---|
G|-3---3---3---3---3---3---3---3---|-3---3---3---3---3---3---3---3---|
C|-3---3---3---3---3---3---3---3---|-3---3---3---3---3---3---3---3---|

But nothing ever changes...

   1   &   2   &   3   &   4   &     1   &   2   &   3   &   4   &    
D|---------------------------------|---------------------------------|
A|---------------------------------|---------------------------------|
F|---------------------------------|---------------------------------|
C|-5---5---5---5---5---5---5---5---|---------------------------------|
G|-5---5---5---5---5---5---5---5---|-5---5---5---5-------------------|
C|-5---5---5---5---5---5---5---5---|-5---5---5---5-------------------|
                                     .   .   .   .
                                     In the end.

   1   &   2   &   3   &   4   &     1   &   2   &   3   &   4   &    
D|---------------------------------|---------------------------------|
A|---------------------------------|---------------------------------|
F|---------------------------------|---------------------------------|
C|-3---3---3---3---3---3---3---3---|-3---3---3---3---3---3---3---3---|
G|-3---3---3---3---3---3---3---3---|-3---3---3---3---3---3---3---3---|
C|-3---3---3---3---3---3---3---3---|-3---3---3---3---3---3---3---3---|

No more I′m suffocating

   1   &   2   &   3   &   4   &     1   &   2   &   3   &   4   &    
D|---------------------------------|---------------------------------|
A|---------------------------------|---------------------------------|
F|---------------------------------|-2---2---2---2---2---2---2---2---|
C|-5---5---5---5---5---5---5---5---|-2---2---2---2---2---2---2---2---|
G|-5---5---5---5---5---5---5---5---|-0---0---0---0---0---0---0---0---|
C|-5---5---5---5---5---5---5---5---|---------------------------------|

You′ve gone and lost your breath

   1   &   2   &   3   &   4   &     1   &   2   &   3   &   4   &    
D|---------------------------------|---------------------------------|
A|---------------------------------|---------------------------------|
F|---------------------------------|---------------------------------|
C|-3---3---3---3---3---3---3---3---|-3---3---3---3---3---3---3---3---|
G|-3---3---3---3---3---3---3---3---|-3---3---3---3---3---3---3---3---|
C|-3---3---3---3---3---3---3---3---|-3---3---3---3---3---3---3---3---|

But nothing ever changes!

   1   &   2   &   3   &   4   &     1   &   2   &   3   &   4   &    
D|---------------------------------|---------------------------------|
A|---------------------------------|---------------------------------|
F|---------------------------------|---------------------------------|
C|-5---5---5---5---5---5---5---5---|---------------------------------|
G|-5---5---5---5---5---5---5---5---|-5---5---5---5---5---5---5---5---|
C|-5---5---5---5---5---5---5---5---|-5---5---5---5---5---5---5---5---|
                                     .   .   .   .   .   .   .   .
                                     In the end.

   1   &   2   &   3   &   4   &     1   &   2   &   3   &   4   &    
D|---------------------------------|---------------------------------|
A|---------------------------------|---------------------------------|
F|-2~------------------------------|(2)------------------------------|
C|-2~------------------------------|(2)------------------------------|
G|-0~------------------------------|(0)------------------------------|
C|---------------------------------|---------------------------------|

*Some time passes*

   1   &   2   &   3   &   4   &     1   &   2   &   3   &   4   &    
D|---------------------------------|---------------------------------|
A|---------------------------------|---------------------------------|
F|---------------------------------|---------------------------------|
C|-5---5-------------------5---5---|-----------------x---x---x---x---|
G|-5---5-------------------5---5---|-----------------x---x---x---x---|
C|-5---5-------------------5---5---|-----------------x---x---x---x---|

            HATE YOU!                HATE YOU!

Guitar 2

   1   &   2   &   3   &   4   &     1   &   2   &   3   &   4   &    
D|-------------7---7---8---8---8---|-------------7---7---8---8---8---|
A|-8---8---8-----------------------|-8---8---8-----------------------|
F|---------------------------------|---------------------------------|
C|---------------------------------|---------------------------------|
G|---------------------------------|---------------------------------|
C|---------------------------------|---------------------------------|

I feel asphyxiated

   1   &   2   &   3   &   4   &     1   &   2   &   3   &   4   &    
D|-5---5---5---5---5---5---5---5---|-7---7---7---7---7---7---7---7---|
A|---------------------------------|---------------------------------|
F|---------------------------------|---------------------------------|
C|---------------------------------|---------------------------------|
G|---------------------------------|---------------------------------|
C|---------------------------------|---------------------------------|

It′s more than I can take.

   1   &   2   &   3   &   4   &     1   &   2   &   3   &   4   &    
D|-------------7---7---8---8---8---|-------------7---7---8---8---8---|
A|-8---8---8-----------------------|-8---8---8-----------------------|
F|---------------------------------|---------------------------------|
C|---------------------------------|---------------------------------|
G|---------------------------------|---------------------------------|
C|---------------------------------|---------------------------------|

But nothing ever changes...

   1   &   2   &   3   &   4   &     1   &   2   &   3   &   4   &    
D|-10--10--10--10--10--10--10--10--|-8---8---8---8-------------------|
A|---------------------------------|---------------------------------|
F|---------------------------------|---------------------------------|
C|---------------------------------|---------------------------------|
G|---------------------------------|---------------------------------|
C|---------------------------------|---------------------------------|

                                     In the end.

   1   &   2   &   3   &   4   &     1   &   2   &   3   &   4   &    
D|-------------7---7---8---8---8---|-------------7---7---8---8---8---|
A|-8---8---8-----------------------|-8---8---8-----------------------|
F|---------------------------------|---------------------------------|
C|---------------------------------|---------------------------------|
G|---------------------------------|---------------------------------|
C|---------------------------------|---------------------------------|

No more I′m suffocating

   1   &   2   &   3   &   4   &     1   &   2   &   3   &   4   &    
D|---------------------------------|-7---7---7---7---7---7---7---7---|
A|-8---8---8---8---8---8---8---8---|---------------------------------|
F|---------------------------------|---------------------------------|
C|---------------------------------|---------------------------------|
G|---------------------------------|---------------------------------|
C|---------------------------------|---------------------------------|

You′ve gone and lost your breath

   1   &   2   &   3   &   4   &     1   &   2   &   3   &   4   &    
D|-------------7---7---8---8---8---|-------------7---7---8---8---8---|
A|-8---8---8-----------------------|-8---8---8-----------------------|
F|---------------------------------|---------------------------------|
C|---------------------------------|---------------------------------|
G|---------------------------------|---------------------------------|
C|---------------------------------|---------------------------------|

But nothing ever changes...

   1   &   2   &   3   &   4   &     1   &   2   &   3   &   4   &    
D|-10--10--10--10--10--10--10--10--|-8---8---8---8---7---7---7---7---|
A|---------------------------------|---------------------------------|
F|---------------------------------|---------------------------------|
C|---------------------------------|---------------------------------|
G|---------------------------------|---------------------------------|
C|---------------------------------|---------------------------------|

                                     In the end

   1   &   2   &   3   &   4   &     1   &   2   &   3   &   4   &    
D|-5~------------------------------|(5)------------------------------|
A|---------------------------------|---------------------------------|
F|---------------------------------|---------------------------------|
C|---------------------------------|---------------------------------|
G|---------------------------------|---------------------------------|
C|---------------------------------|---------------------------------|

*Some time passes*

   1   &   2   &   3   &   4   &     1   &   2   &   3   &   4   &    
D|---------------------------------|---------------------------------|
A|---------------------------------|---------------------------------|
F|---------------------------------|---------------------------------|
C|-5---5-------------------5---5---|-----------------x---x---x---x---|
G|-5---5-------------------5---5---|-----------------x---x---x---x---|
C|-5---5-------------------5---5---|-----------------x---x---x---x---|

Тональность:

Это должно быть в ТОП-листе! - Топ-лист композиций



Назад
Рекомендуем посмотреть другие песни исполнителя «Bullet For My Valentine»:

  • Комменты Fb ()
  • Комменты ВК



Добавить в Избранное Браузера
Сохранить здесь Очистить


x

0


+
-

+
-

-

Авторизация





Зарегистрироваться

M

Дата и время

  • 20:45:55
     

Социальные ссылки


Наши приложения

  • Muzbank App Play Market
  • Muzbank Amazon App