MUZBANK


МУЗЫКАЛЬНО-ИНФОРМАЦИОННЫЙ БАНК





ББутусов Вячеслав • Берег (аккорды и текст - chords & lyrics)


2248

Print

Видео «Берег (Бутусов Вячеслав)»

Видео клипы к песне подбираются автоматически сайтом youtube. Возможны некоторые несоответствия клипов песне.

↑ Спрятать рекламу ↑






Am
К берегу спешат пароходы,
   Am
К берегу бегут поезда,
       Dm
Но закрыты все замки и засовы -
    C               E
На берег наступает вода.

Берег - это медленная птица,
Берег - это пленный океан,
Берег - это каменное сердце,
Берег - это чья-то тюрьма.

        C                     G
  И когда на берег хлынет волна
        Am                   E
  И застынет на один только миг -
         F                  C
  На земле уже случится война
       Dm                  Am
  О которой мы узнаем из книг.

E|-----------------------------------------------|
B|-----------------------------------------------|
G|----------------------------------------0------|
D|--------0-2---2---0-2-------------0-2-2---3-2--|  2 раза
A|--0-2-3---------------0-----0-2-3--------------|
E|-----------------------------------------------|

Лязгнут золотые ворота
Чей-то голос скажет: "лети!"
Надпись на дверях туалета:
"Будешь на Земле - заходи".

Звездочка блестнет y порога -
Догадайся, сколько ей лет?
Выйдешь на пустую дорогу -
Щелкнет за спиной пистолет.
Кто-то поставил на мне пробу
Знать бы только, кто этот "кто"?
Злоба - воробьиное слово
копится в карманах пальто

  И когда вода отступит назад
  Берег выйдет и откроет героя
  Берег выйдет и откроет врага
  Их по-прежнему останется двое.

Виски с сахаром и квашеной капустой
Лед холодный лед на висках
В голове моей прохладно и пусто
Расскажи мне где ты и как

Хочется блевать но не время
Время начищать сапоги
Косточка как белое стремя
Цвета чьей-то детской ноги

  Берег встретит героя
  Берег встретит врага
  Нас всегда было двое
  А теперь только я.


Соло
1 |-------------------------------------|
2 |-------------------------------------|
3 |---------4-4--4-----------4----7-5-4-|
4 |---4-5-7----7-------4-5-7----7-------|
5 |-7-------------7---7-----------------|
6 |-------------------------------------|

Тональность:

Это должно быть в ТОП-листе! - Топ-лист композиций



Назад
Рекомендуем посмотреть другие песни исполнителя «Бутусов Вячеслав»:

  • Комменты Fb ()
  • Комменты ВК



Добавить в Избранное Браузера
Сохранить здесь Очистить


x

0


+
-

+
-

-

Авторизация





Зарегистрироваться

M

Дата и время

  • 18:28:30
     

Социальные ссылки


Наши приложения

  • Muzbank App Play Market
  • Muzbank Amazon App