MUZBANK



A MOST COMPLETE BANK OF MUSIC INFORMATION

МУЗЫКАЛЬНО-ИНФОРМАЦИОННЫЙ БАНК







    CCarcass • Genital Grinder (аккорды и текст - chords & lyrics)


    496

    Print

    Видео «Genital Grinder (Carcass)»

    Видео клипы к песне подбираются автоматически сайтом youtube. Возможны некоторые несоответствия клипов песне.

    ↑ Спрятать рекламу ↑





     
    
    
    join the death/black metal tab mailing list by emailing 
            
    
                                  Genital Grinder tabs
    
    Genital Grinder
    (Tune down 2.5 steps to B)
     Intro (4x):
    |---------------------|-----------------|
    |---------------------|-----------------|
    |---------------------|-----------------|
    |-2-------------------|-2-------3--6--5-|
    |-2-------------------|-2-------3--6--5-|
    |-0-------------------|-0-------1--4--3-|
    
     Main riff (8x, first 4x w/first rhythm also):
    |---------------------|-----------------|
    |---------------------|-----------------|
    |---------------------|-----------------|
    |-2--2--2h3p2p0-------|-2---2---3--6--5-|
    |-2-------------3p2p0-|-2---2---3--6--5-|
    |-0-------------------|-0---0---1--4--3-|
    
     The other riff:
    |------------------|----------------|
    |------------------|----------------|
    |------------------|----------------|
    |-2------------3-6-|-2--------3--6--|
    |-2------------3-6-|-2--------3--6--|
    |-0-000-000-00-1-4-|-0-000-00-1--4--|
     

    Тональность:

    Это должно быть в ТОП-листе! - Топ-лист композиций



    Назад
    Рекомендуем посмотреть другие песни исполнителя «Carcass»:

    • Комменты Fb ()
    • Комменты ВК



    Добавить в Избранное Браузера
    Сохранить здесь Очистить


    x

    0


    +
    -

    +
    -

    -

    Авторизация





    Зарегистрироваться

    M

    Дата и время

    • 12:50:32
       

    Социальные ссылки


    Наши приложения

    • Muzbank App Play Market
    • Muzbank Amazon App