MUZBANK


МУЗЫКАЛЬНО-ИНФОРМАЦИОННЫЙ БАНК





CCash Johnny • Hurt 2 (аккорды и текст - chords & lyrics)


319

Print

Видео «Hurt 2 (Cash Johnny)»

Видео клипы к песне подбираются автоматически сайтом youtube. Возможны некоторые несоответствия клипов песне.

↑ Спрятать рекламу ↑





Intro and verse

Am C D Am C D Am
E------0---------0------2-------0-------0--------2------0----|
B------1---------1------3-------1-------1--------3------1----|
G------2---------0-----2--------2-------0------2--------2----|
D----2---------2-----0-------2--------2------0--------2------|
A--0--------3--------------0--------3----------------0-------|
E------------------------------------------------------------|

"I hurt
Pattern continues throughout verses

CHORUS:
G, Am7, F6, C5, G

E----3-------3-------5-------3--------3------|
B----0-------1-------6-------0--------0------|
G----0-------0-------5-------5--------0------|
D----0-------2-------7-------5--------0------|
A----2-------0-------5-------3--------2------|
E----3-------0-------0-------0--------3------|


Just keep strumming G at the climax near the end

Lyrics:
Verse 1:
I hurt myself today
to see if I still feel
I focus on the pain
the only thing that's real
the needle tears a hole
the old familiar sting
try to kill it all away
but I remember everything

Chorus:
what have I become?
my sweetest friend
everyone I know
goes away in the end
you could have it all
my empire of dirt
I will let you down
I will make you hurt

Verse 2:
I wear my crown of shit
on my liar's chair
full of broken thoughts
I cannot repair
beneath the stain of time
the feeling disappears
you are someone else
I am still right here

Chorus:
what have I become?
my sweetest friend
everyone I know
goes away in the end
you could have it all
my empire of dirt
I will let you down
I will make you hurt

Bridge:
if I could start again
a million miles away
I would keep myself
I would find a way

Тональность:

Это должно быть в ТОП-листе! - Топ-лист композиций



Назад
Рекомендуем посмотреть другие песни исполнителя «Cash Johnny»:

  • Комменты Fb ()
  • Комменты ВК



Добавить в Избранное Браузера
Сохранить здесь Очистить


x

0


+
-

+
-

-

Авторизация





Зарегистрироваться

M

Дата и время

  • 14:14:57
     

Социальные ссылки


Наши приложения

  • Muzbank App Play Market
  • Muzbank Amazon App