MUZBANK


МУЗЫКАЛЬНО-ИНФОРМАЦИОННЫЙ БАНК





CCeline Dion • Think Twice (аккорды и текст - chords & lyrics)


357

Print

Видео «Think Twice (Celine Dion)»

Видео клипы к песне подбираются автоматически сайтом youtube. Возможны некоторые несоответствия клипов песне.

↑ Спрятать рекламу ↑





Intro

E||------------------|------------------|--------------------|
B||------------------|------------------|--------------------|
G||------------------|------------------|------12b-----------|
D||------------------|------------------|--------------------|
A||------------------|------------------|--------------------|
E||------------------|------------------|--------------------|


Verse 1
--------------------------|--------------------|------------------|
----------20b-20b-20r-18--|--18----------------|------------------|
--------------------------|--------------------|------------------|
--------------------------|--------------------|------------------|
--------------------------|--------------------|------------------|
--------------------------|--------------------|------------------|



------------------|------------------|----------------------|------------------|
------------------|------------------|----------------------|------------------|
------------------|------------------|----------------------|------------------|
------------------|------------------|--2h3h2h0-------------|------------------|
------------------|------------------|----------------------|------------------|
------------------|------------------|----------------------|------------------|


Bridge
------------------|--------------------|------------------|
------------------|--------------13b---|------------------|
------------------|--------------------|------------------|
------------------|--------------------|------------------|
------------------|--------------------|------------------|
------------------|--------------------|------------------|



----------------------|--------------------|------------------|
--------------13--13--|--13b---------------|------------------|
----------------------|--------------------|------------------|
----------------------|--------------------|------------------|
----------------------|--------------------|------------------|
----------------------|--------------------|------------------|



Chorus
------------------|------------------|------------------|------------------|
------------------|------------------|------------------|------------------|
------------------|------------------|------------------|------------------|
------------------|------------------|------------------|------------------|
------------------|------------------|------------------|------------------|
------------------|------------------|------------------|------------------|



------------------|------------------|------------------|------------------|
------------------|------------------|------------------|------------------|
------------------|------------------|------------------|------------------|
------------------|------------------|------------------|------------------|
------------------|------------------|------------------|------------------|
------------------|------------------|------------------|------------------|


"PostChorus" Verse 2
---------------------------|--------------------|------------------|
---------------------------|--------------------|------------------|
------------12----14h12/10-|------12------------|------------------|
---------------------------|--------------------|------------------|
---------------------------|--------------------|------------------|
---------------------------|--------------------|------------------|



-------------------|------------------------|------------------------|
--------------6----|--6-8-6-5---------------|-------------------10---|
-------------------|------------------------|----------------10-10---|
-------------------|------------------------|------------12----------|
-------------------|------------------------|------------------------|
-------------------|------------------------|------------------------|



--------------------------|--------------------|------------------|
--------------------------|--------------------|------------------|
--------------------------|--------------14----|------------------|
--12-10-12----------------|--------------------|------------------|
--------------------------|--------------------|------------------|
--------------------------|--------------------|------------------|



--------------------------|--------------------|
--------------------15----|--15----------------|
--------------14-14----14-|--------------------|
--------------------------|--------------------|
--------------------------|--------------------|
--------------------------|--------------------|

Then Chorus again

Solo

--------------------------------|--------------------------------------|
--10----------------------------|--------------------------------13-15-|
------------14h12---------------|-----12-12----12h14h12----12-14-------|
------------------15h12------12-|--15----------------------------------|
--------------------------------|--------------------------------------|
--------------------------------|--------------------------------------|



------------15-------------15----15h13-|----------------------------------|
------15h13----15----15h13-------------|--15--15-13-----------------------|
---------------------------------------|------------14--14-12-------------|
---------------------------------------|----------------------15----------|
---------------------------------------|----------------------------14----|
---------------------------------------|----------------------------------|


Chorus after solo

---------------------|-------------------|----------------------|
---------------------|-------------------|----------------------|
---------------------|--5----------------|-----------------7----|
--5------7--8--------|--5----------------|--5------7--8----7----|
--5------7--8--------|--3----------------|--5------7--8----5----|
--3------5--6--------|-------------------|--3------5--6---------|



-------------------|-------------------|----------||
-------------------|-------------------|----------||
--5----------------|--5----------------|----------||
--5----------------|--5----------------|----------||
--3----------------|--3----------------|----------||
-------------------|-------------------|----------||

Тональность:

Это должно быть в ТОП-листе! - Топ-лист композиций



Назад
Рекомендуем посмотреть другие песни исполнителя «Celine Dion»:

  • Комменты Fb ()
  • Комменты ВК



Добавить в Избранное Браузера
Сохранить здесь Очистить


x

0


+
-

+
-

-

Авторизация





Зарегистрироваться

M

Дата и время

  • 22:23:00
     

Социальные ссылки


Наши приложения

  • Muzbank App Play Market
  • Muzbank Amazon App