MUZBANK


МУЗЫКАЛЬНО-ИНФОРМАЦИОННЫЙ БАНК





ЧЧайФ • Чудо-труба (аккорды и текст - chords & lyrics)


395

Print

Видео «Чудо-труба (ЧайФ)»

Видео клипы к песне подбираются автоматически сайтом youtube. Возможны некоторые несоответствия клипов песне.

↑ Спрятать рекламу ↑






   E    E6   E
На улице весна,
        E     E6  E
Играет маленький бэнд,
       E      E6   E
В нем бывший землекоп,
    E    Eadd9+ Eadd9 E
Пожарный, брокер и мент.
   A7 A6 A             A7  A6 A
Играют вот уж сколько лет подряд,
  E    E   E6   E    E     E6 E
Дамы сходят с ума от этих ребят,
   H7                H7
На улице, в песке играют малыши,
       A7                  H7        A7 A6 E E6 E
Они пока еще не знают, как эти трубы хороши.

Рифф.

У каждого из них есть чудо-труба,
Туб-туб-туба, Туба-туба.
Она так страстно о любви поет,
Взволнованно вздыхает и за собой зовет,
Зовет на свидание, на рандеву, на флэт,
Когда она играет, весь город гасит свет.

Рифф.

И вот наступает ответственный момент,
Бывший землекоп, пожарный, брокер и мент
Достают свои трубы, поднимают к небесам,
Старушки закрывают окна, о, какой срам!
По телевизору о звездах им вещает Глоба,
А за окном поет и стонет о любви труба.

Рифф.
Соло.
Рифф.

И если ты слышишь, как они трубят,
Трубят и зовут вот уж столько лет подряд,
Сделай хоть что-то и подай им знак,
Что есть еще хоть кто-то, кто делает так,
Также как я, и также как они,
Хей-хей, свою трубу подними.
Хей-хей-хей, трубу подними!

Рифф:
E|----------------------|-----------------------|
B|----------------------|-----------------------|
G|----------------------|-----------------------|
D|----------------------|-----------------------|
A|----------4-4h5-4-----|----------4-4h5-4------|
E|-00-0-4-7---------7-4-|-00-0-4-7---------7-4--|

Соло вроде этого:
E|-------------------------------------------------------|
B|-------------------------------------------------------|
G|-------------------------------------------------------|
D|-5-4---4---4---5--5--5-4-------------------------------|
A|-----7---7---7-----------7-4-7--4--2--4--7-4-2-4-7~~---|
E|-------------------------------------------------------|

E|----------------------------------------|
B|----------------------------------------|
G|----------------------------------------|
D|-55-4-------5--5--5-4-------------------|
A|-------7--4-----------7-4-7--4--2--4--7-|
E|----------------------------------------|

E      xx2100
E6     xx2120
Eadd9  xx2102
Eadd9+ xx2103
A7     xx2223
A6     xx2222
A      xx2220
H7     xx4445

Тональность:

Это должно быть в ТОП-листе! - Топ-лист композиций



Назад
Рекомендуем посмотреть другие песни исполнителя «ЧайФ»:

  • Комменты Fb ()
  • Комменты ВК



Добавить в Избранное Браузера
Сохранить здесь Очистить


x

0


+
-

+
-

-

Авторизация





Зарегистрироваться

M

Дата и время

  • 23:27:31
     

Социальные ссылки


Наши приложения

  • Muzbank App Play Market
  • Muzbank Amazon App