MUZBANK


МУЗЫКАЛЬНО-ИНФОРМАЦИОННЫЙ БАНК





ЧЧайФ • Религия (аккорды и текст - chords & lyrics)


597

Print

Видео «Религия (ЧайФ)»

Видео клипы к песне подбираются автоматически сайтом youtube. Возможны некоторые несоответствия клипов песне.

↑ Спрятать рекламу ↑






Intro:, Chorus:
  F                               C
e|----------------1--------------|-----------------0-----------|
B|------------1-------1----------|-----1---0-h-1-------1-------|
G|--------2---------------2------|-------------------------0---|
D|-------------------------------|-----------------------------|
A|-------------------------------|3----------------------------|
E|1---------------------------1--|-----------------------------|

  G                               Am
e|-------------------------------|---------------------0-------|
B|--------0---0-h-1-------3------|-----1-------1-h-3-----------|
G|--------------------0-------0--|-----2-------2-----------2---|
D|-------------------------------|-----------------------------|
A|-------------------------------|0----------------------------|
E|3------------------------------|-----------------------------|

  F                              C
e|----------------1--------------|---------------------0-------|
B|------------1-------1----------|-----1-------1-h-3-------3---|
G|--------2---------------2------|---------0-------------------|
D|-------------------------------|-----------------------------|
A|-------------------------------|3----------------------------|
E|1----------------------------1-|-----------------------------|

  G
e|-------------------------------|-----------------------------|
B|----------------0----------0-h-|1----------------------------|
G|--------0----------------------|----0------------------------|
D|-------------------------------|-----------------------------|
A|-------------------------------|-----------------------------|
E|3------------------------------|-----------------------------|


Далее - 2 гитары:
1-я гитара:
  Am
e|-------------------------------|-----------------------------|
B|------------0---0h1p0----------|-----------------------------|
G|--------2---------------2------|-------------0---------------|
D|----2-----------------------2--|0----------------------------|
A|0------------------------------|-------------------------0---|
E|-------------------------------|-----------------------------|

  Am                                                         x3
e|-------------------------------|-----------------------------|
B|------------0---0h1p0----------|-----------------------------|
G|--------2---------------2------|-------------0---------------|
D|----2-----------------------2--|0----------------------------|
A|-------------------------------|-------------------------0---|
E|-------------------------------|-----------------------------|


2-я гитара:
  Am                              Em                         x4
e|----------------0--------------|-------------0---------------|
B|------------1-------1----------|-------------0---------------|
G|--------2---------------2------|------0--------------0-------|
D|-------------------------------|-----------------------------|
A|0---------------------------0--|-----------------------------|
E|-------------------------------|0----------------------------|


Куплет: играет 1 гитара так, как 2-я играла в конце Intr'ы.

Outro:
  F                               C
e|----------------1--------------|-----------------0-----------|
B|------------1-------1----------|-----1---0-h-1-------1-------|
G|--------2---------------2------|-------------------------0---|
D|-------------------------------|-----------------------------|
A|-------------------------------|3----------------------------|
E|1---------------------------1--|-----------------------------|

  G                               Am
e|-------------------------------|---------------------0-------|
B|--------0---0-h-1-------3------|-----1-------1-h-3-----------|
G|--------------------0-------0--|-----2-------2-----------2---|
D|-------------------------------|-----------------------------|
A|-------------------------------|0----------------------------|
E|3------------------------------|-----------------------------|

  F                               C
e|----------------1--------------|---------------------0-------|
B|------------1-------1----------|-----1-------1-h-3-------3---|
G|--------2---------------2------|---------0-------------------|
D|-------------------------------|-----------------------------|
A|-------------------------------|3----------------------------|
E|1---------------------------1--|-----------------------------|

  G
e|-------------------------------|-----------------------|--0--|
B|----------------0----------0-h-|1----------------------|--1--|
G|--------0----------------------|----0------------------|--2--|
D|-------------------------------|-----------------------|--2--|
A|-------------------------------|-----------------------|--0--|
E|3------------------------------|-----------------------|-----|

   Am     Em      Am         Em
Горящий окурок, упавший на снег,
Тянет магнитом закрытая дверь,
Вот кто-то прошел и оставил свой след,
Ласковый ветер теплых морей.
F      C   G             Am
Это религия завтрашних дней.
Ласковый ветер теплых морей.

Дом, приготовленный нами под снос,
Музыка памяти прожитых дней,
Повисший в пространстве наивный вопрос,
Запахи леса осенних полей.

Это религия завтрашних дней.
Запахи леса осенних полей.

Темные лица за мутным стеклом,
Большое корыто для жирных свиней,
Простая синица с подбитым крылом,
Они будут толще, мы будем смелей,

Это религия завтрашних дней.
Они будут толще, мы будем смелей.

Они будут толще, мы будем смелей.
5 раз.

Тональность:

Это должно быть в ТОП-листе! - Топ-лист композиций



Назад
Рекомендуем посмотреть другие песни исполнителя «ЧайФ»:

  • Комменты Fb ()
  • Комменты ВК



Добавить в Избранное Браузера
Сохранить здесь Очистить


x

0


+
-

+
-

-

Авторизация





Зарегистрироваться

M

Дата и время

  • 23:05:13
     

Социальные ссылки


Наши приложения

  • Muzbank App Play Market
  • Muzbank Amazon App