MUZBANK



A MOST COMPLETE BANK OF MUSIC INFORMATION

МУЗЫКАЛЬНО-ИНФОРМАЦИОННЫЙ БАНК







    CCharlatans • Love Is The Key (аккорды и текст - chords & lyrics)


    311

    Print

    Видео «Love Is The Key (Charlatans)»

    Видео клипы к песне подбираются автоматически сайтом youtube. Возможны некоторые несоответствия клипов песне.

    ↑ Спрятать рекламу ↑





     
    
    
    the charlatans
    love is the key
    wonderland
    tabbed by jonny collins (jc_everton@hotmail.com)
    
    Loads of improvisation in this song, so dont think I dont know about it.
    I have tabbed out the song in general.
    
    s = slide   h = hammeron
    
    Intro/Chorus - listen to cd for when come in and how many times you play it.
    
    G /---------------/
    D /---------------/
    A /---------------/
    E /--18s6-s-16s4--/
    
    Verse - this is a basic outline but there is much improvisation
    
    G /----------------------/
    D /------------1------1--/
    A /--------1-3----1h3----/
    E /-1--1-1---------------/
    
    Bridge
    
    G /------------------------------------------------------------------/
    D /------------------------------------------------------------------/
    A /------------------------------------------------------------------/
    E /-6-6-6-6-6-6-6-6-6-6-6-6-6-6-6-6-3-3-3-3-3-3-3-3-3-3-3-3-3-3-3-3--/
    
    Guitar Solo bit - again, listen to cd for things like the improvisation
    
    G /------------/
    D /------------/
    A /------------/
    E /-6-6--6-7-8-/
     

    Тональность:

    Это должно быть в ТОП-листе! - Топ-лист композиций



    Назад
    Рекомендуем посмотреть другие песни исполнителя «Charlatans»:

    • Комменты Fb ()
    • Комменты ВК



    Добавить в Избранное Браузера
    Сохранить здесь Очистить


    x

    0


    +
    -

    +
    -

    -

    Авторизация





    Зарегистрироваться

    M

    Дата и время

    • 11:06:33
       

    Социальные ссылки


    Наши приложения

    • Muzbank App Play Market
    • Muzbank Amazon App