MUZBANK


МУЗЫКАЛЬНО-ИНФОРМАЦИОННЫЙ БАНК





ЧЧерный Обелиск • Про любовь (аккорды и текст - chords & lyrics)


924

Print

Видео «Про любовь (Черный Обелиск)»

Видео клипы к песне подбираются автоматически сайтом youtube. Возможны некоторые несоответствия клипов песне.

↑ Спрятать рекламу ↑





Intro
G|-------------------------------------------------------------|
D|------------------------------------5p4----------------------|
A|-----10--9--7--5--------3-------3h5-----5-5/7--5--7----------|
E|--0/--------------7--3---------------------------------------|

G|-------------------------------------------------------------|
D|-----9---5---9---10---9---7---5------------------------------|
A|-------7---7---7----7---7---7----7⁄--------------------------|
E|-------------------------------------------------------------|

Verse
G|-------------------------------------------------------------|
D|---------------------------------------------5p4-------------|
A|--------------------------3--------------3h5-----5-7---------|
E|-------------------------------------------------------------|
     Я просто жил и был доволен собой.

G|-------------------------------------------------------------|
D|---------------------------------------------5p4-------------|
A|------------------------3----------------3h5-----5-5---------|
E|-------------------------------------------------------------|

     Подружек многих имена забывал.

G|-------------------------------------------------------------|
D|-------------------------------------------------------------|
A|----------------4------------2----------4--------------------|
E|-------------------------------------------------------------|

     Легко встречал я день любой.

G|-------------------------------------------------------------|
D|-------------------------------------------------------------|
A|-5-------------4---------2-----------------------------------|
E|-------------------------------------------------------------|

     И так же просто засыпал.

Verse 2

G|-------------------------------------------------------------|
D|-------------------------------------------------------------|
A|-------------------------------------3-3h5-5/7---------------|
E|--0-------------------/9-------------------------------------|

     И я не знал до последнего дня,

G|-------------------------------------------------------------|
D|-------------------------------------------------------------|
A|----------------------------------3-5------------------------|
E|--0---------------------/9-----------------------------------|

     Что есть на свете такое лицо.

G|-------------------------------------------------------------|
D|-------------------------------------------------------------|
A|---5-----------------------4----2----------------4-----------|
E|--------5----2----0----5-------------5--2--0--5--------------|

          Я сразу понял  - вот она.

G|-------------------------------------------------------------|
D|-------------------------------------------------------------|
A|---5-----------------------4--2------------------------------|
E|------5------2-----0----5--------5--2--7-5--2--0-2-0---------|

Тональность:

Это должно быть в ТОП-листе! - Топ-лист композиций



Назад
Рекомендуем посмотреть другие песни исполнителя «Черный Обелиск»:

  • Комменты Fb ()
  • Комменты ВК



Добавить в Избранное Браузера
Сохранить здесь Очистить


x

0


+
-

+
-

-

Авторизация





Зарегистрироваться

M

Дата и время

  • 10:03:28
     

Социальные ссылки


Наши приложения

  • Muzbank App Play Market
  • Muzbank Amazon App