MUZBANK


МУЗЫКАЛЬНО-ИНФОРМАЦИОННЫЙ БАНК





CChuck Berry • Blues (аккорды и текст - chords & lyrics)


507

Print

Видео «Blues (Chuck Berry)»

Видео клипы к песне подбираются автоматически сайтом youtube. Возможны некоторые несоответствия клипов песне.

↑ Спрятать рекламу ↑





               E
E|-0-0-0-0-0-0-0-0-0-0-0-0-0-0-0-0-0-0-0-0-0-0-0-0-0-0-0-0-0-0-|
A|-2-2-4-2-2-2-4-2-2-2-4-2-2-2-4-2-2-2-4-2-2-2-4-2-2-2-4-2-2-2-|
D|-------------------------------------------------------------|
G|-------------------------------------------------------------|
B|-------------------------------------------------------------|
E|-------------------------------------------------------------|

E|-0-0-|
B|-4-2-|
G|-----|
D|-----|
A|-----|
E|-----|

      A                             E
E|-----------------------------------0-0-0-0-0-0-0-0-0-0-0-0-0-|
A|-0-0-0-0-0-0-0-0-0-0-0-0-0-0-0-0-2-2-4-2-2-2-4-2-2-2-4-2-2-2-|
D|-2-2-4-2-2-2-4-2-2-2-4-2-2-2-4-2-----------------------------|
G|-------------------------------------------------------------|
B|-------------------------------------------------------------|
E|-------------------------------------------------------------|

E|-0-0-0-|
B|-4-2---|
G|-------|
D|-------|
A|-------|
E|-------|

      B                 A             E                   A
E|---------------------------------0-0-0-0-0-0-0-0-------------|
A|-2-2-2-2-2-2-2-2-0-0-0-0-0-0-0-0-2-2-4-2-2-2-4-2-0-0-0-0-0-0-|
D|-4-4-6-4-4-4-6-4-2-2-4-2-2-2-4-2-----------------2-2-4-2-2-2-|
G|-------------------------------------------------------------|
B|-------------------------------------------------------------|
E|-------------------------------------------------------------|

E|-----|
B|-0-0-|
G|-4-2-|
D|-----|
A|-----|
E|-----|

Тональность:

Это должно быть в ТОП-листе! - Топ-лист композиций



Назад
Рекомендуем посмотреть другие песни исполнителя «Chuck Berry»:

  • Комменты Fb ()
  • Комменты ВК



Добавить в Избранное Браузера
Сохранить здесь Очистить


x

0


+
-

+
-

-

Авторизация





Зарегистрироваться

M

Дата и время

  • 02:03:35
     

Социальные ссылки


Наши приложения

  • Muzbank App Play Market
  • Muzbank Amazon App