MUZBANK


МУЗЫКАЛЬНО-ИНФОРМАЦИОННЫЙ БАНК





CChuck Berry • Carol (аккорды и текст - chords & lyrics)


598

Print

Видео «Carol (Chuck Berry)»

Видео клипы к песне подбираются автоматически сайтом youtube. Возможны некоторые несоответствия клипов песне.

↑ Спрятать рекламу ↑





Intro

Gtr I
E|--------|8-8-8-8-8--------|8-8-8-8-8--------|8-8-8-8-8-8-8-8|
B|----8-10|8-8-8-8-8----8-10|8-8-8-8-8----8-10|8-8-8-8-8-8-8-8|
G|-/9-----|9---------/9-----|8-8-8-8-8-/9-----|9--------------|
D|--------|-----------------|-----------------|---------------|
A|--------|-----------------|-----------------|---------------|
E|--------|-----------------|-----------------|---------------|

                      Pre-Verse
E|-8-----------------||-----------------|
B|-8-10b11-(10)------||-/11-(11)----/11-|
G|---10b12-(10)------||-/12-(12)----/12-|
D|-------------------||-----------------|
A|-------------------||-----------------|
E|-------------------||-----------------|

E|--------------8-|
B|-(11)--10-----8-|
G|-(12)--10-8h9---|
D|----------------|
A|----------------|
E|----------------|

E|-----------------|-----------------||
B|-/11-(11)----/11-|-(11)--10-8------||
G|-/12-(12)----/12-|-(12)--10-8h9--9-||
D|-----------------|--------------10-||
A|-----------------|-----------------||
E|-----------------|-----------------||

   1st & 2nd Verse
E||----|-------|-----------------------|-----------|
B||o---|--8----|-----------------------|-----------|
G||----|-10b12-|-(10)-10--10-8h9-------|-------8h9-|
D||----|-------|-----------------10----|-10-10-----|
A||o---|-------|--------------------10-|-----------|
E||----|-------|-----------------------|-----------|

E|---------------------------|
B|---------------------------|
G|-10b12==(10)r(10)b12==(10)r|
D|---------------------------|
A|---------------------------|
E|---------------------------|

E|-----------------------------|------------|
B|-----------------------------|------------|
G|-(10)b12==(10)r(10)-8-----8--|-10-8-------|
D|----------------------10-----|------10-10-|
A|-----------------------------|------------|
E|-----------------------------|------------|

E|------|
B|------|
G|-8-10-|
D|------|
A|------|
E|------|

E|------8-10b11-(10)-8--------------8-|-10-8----8-|
B|-8-10----------------8-10b11-(10)---|------11---|
G|------------------------------------|-----------|
D|------------------------------------|-----------|
A|------------------------------------|-----------|
E|------------------------------------|-----------|

E|--------------8-|
B|------------8---|
G|-10b12-(10)-----|
D|----------------|
A|----------------|
E|----------------|

E|------------8-------------------------|------------|
B|-11b12-(11)---10-8--------------------|------------|
G|-------------------10b11-(10)-10-8----|-10-8-------|
D|-----------------------------------10-|------10-10-|
A|--------------------------------------|------------|
E|--------------------------------------|------------|

E|-11-|-8--------------8-10-8-------|----------------|
B|----|---8-10b11-(10)--------11-10-|-8------------8-|
G|----|-----------------------------|---10b12-(10)---|
D|----|-----------------------------|----------------|
A|----|-----------------------------|----------------|
E|----|-----------------------------|----------------|

E|----------------|
B|------------8-8-|
G|-11b12-(11)-----|
D|----------------|
A|----------------|
E|----------------|

E|-----------------------------------------------------|
B|------------8------------8------------8------------8-|
G|-11b12-(11)---11b12-(11)---11b12-(11)---11b12-(11)---|
D|-----------------------------------------------------|
A|-----------------------------------------------------|
E|-----------------------------------------------------|

E|------------------------||
B|-------------------8-10-||
G|-10-8h9---------/9------||
D|--------10-10-----------||
A|------------------------||
E|------------------------||

 1st & 2nd Chorus
E|-8-8-8-8-8---------|-8-8-8-8-8---------|
B|-8-8-8-8-8----8-10-|-8-8-8-8-8----8-10-|
G|-9---------/9------|-8---------/9------|
D|-------------------|-------------------|
A|-------------------|-------------------|
E|-------------------|-------------------|

E|-8-8-8-8-8-8-8-8-|-8--------------------------------|
B|-8-8-8-8-8-8-8-8-|-8--------------------------------|
G|-9---------------|---10b11==(10)r(10)b11==(10)r(10)-|
D|-----------------|---10b12==(10)r(10)b12==(10)r(10)-|
A|-----------------|----------------------------------|
E|-----------------|----------------------------------|

E|-10p8-|-5p3-(3)-|-5-3-3-|
B|-10p8-|-5p3-(3)-|-------|
G|-10p8-|-5p3-(3)-|-5-3-3-|
D|------|---------|-------|
A|------|---------|-------|
E|------|---------|-------|

E|---------------------|-----------------||
B|-/11--/11-(11)--10-8-|----8--8---------||
G|-/12--/12-(12)--10-8h|==9----8h9-------||
D|---------------------|-10--------10-10-||
A|---------------------|-----------------||
E|---------------------|-----------------||

 Guitar Break
  1.
E|-8-8-8-8-8-----------|    E|-8-----------8-----------|
B|-8-8-8-8-8-10-8------|    B|-8-10-8------8-10-8------|
G|-9---------10-8h9----| X2 G|-9-10-8h9------10-8h9----|
D|------------------10-|    D|----------10----------10-|
A|---------------------|    A|-------------------------|
E|---------------------|    E|-------------------------|

E|-------------------------------------------------------|
B|-8-10b11==(10)r(10)b11==(10)r(10)b11-(10)--------------|
G|-9-10b12==(10)r(10)b12==(10)r(10)b12-(10)-10b12==(10)r=|
D|-------------------------------------------------------|
A|-------------------------------------------------------|
E|-------------------------------------------------------|

E|-------------------|------8-11b12-(11)-8--------------8-|
B|------8-----8-8----|-8-10----------------8-11b12-(11)---|
G|-(10)-8-----8-8-10-|------------------------------------|
D|--------10---------|------------------------------------|
A|-------------------|------------------------------------|
E|-------------------|------------------------------------|

E|-10-8-------------------|-8-8-8---------------|
B|------11-10-8---------8-|---8-8-10-8------/17-|
G|--------------10-/9-9---|-------10-8h9--------|
D|------------------------|--------------10-----|
A|------------------------|---------------------|
E|------------------------|---------------------|

E|15-13-11-10-|--8-6-5-3-|-------------------8-|(8)--------8--||
B|17-15-13-11-|-10-8-6-4-|--------------8-10-8-|(8)-10-8---8-o||
G|------------|----------|-5-5-5-5-5-/9--------|----10-8h9----||
D|------------|----------|-5-------------------|--------------||
A|------------|----------|---------------------|-------------o||
E|------------|----------|---------------------|--------------||

Chorus
 2.
E|-8-8-8-8-8---------|-8-8-8-8-8---------|
B|-8-8-8-8-8----8-10-|-8-8-8-8-8----8-10-|
G|-9---------/9------|-8---------/9------|
D|-------------------|-------------------|
A|-------------------|-------------------|
E|-------------------|-------------------|

E|-8-8-8-8-8-8-8-8-|-8--------------------------------|
B|-8-8-8-8-8-8-8-8-|-8--------------------------------|
G|-9---------------|---10b11==(10)r(10)b11==(10)r(10)-|
D|-----------------|---10b12==(10)r(10)b12==(10)r(10)-|
A|-----------------|----------------------------------|
E|-----------------|----------------------------------|

E|-10p8-|-5p3-(3)-|-5-3--3-|
B|-10p8-|-5p3-(3)-|--------|
G|-10p8-|-5p3-(3)-|-5-3--3-|
D|------|---------|--------|
A|------|---------|--------|
E|------|---------|--------|

E|---------------------|------------------*|
B|-/11--/11-(11)--10-8-|----8---8---------*|
G|-/12--/12-(12)--10-8h|==9-----8h9-------*|
D|---------------------|-10---------10-10-*|
A|---------------------|------------------*|
E|---------------------|------------------*|

Oh Carol, don't let him steal your heart away
I'm gonna learn to dance if it takes me all night and day

Climb into my machine so we can cruise on out
I know a swingin' little joint where we can jump and shout
It's not too far back off the highway, not so long a ride
You park your car out in the open, you can walk inside
A little cutie takes your hat and you can thank her, ma'am
Every time you make the scene you find the joint is jammed

Oh Carol, don't let him steal your heart away
I'm gonna learn to dance if it takes me all night and day

And if you wanna hear some music like the boys are playin'
Hold tight, pat your foot, don't let 'em carry it away
Don't let the heat overcome you when they play so loud
Oh, don't the music intrigue you when they get a crowd
You can't dance, I know you wish you could
I got my eyes on you baby, 'cause you dance so good

Oh Carol, don't let him steal your heart away
I'm gonna learn to dance if it takes me all night and day

Don't let him steal your heart away
I've got to learn to dance if it takes you all night and day
Oh Carol

Тональность:

Это должно быть в ТОП-листе! - Топ-лист композиций



Назад
Рекомендуем посмотреть другие песни исполнителя «Chuck Berry»:

  • Комменты Fb ()
  • Комменты ВК



Добавить в Избранное Браузера
Сохранить здесь Очистить


x

0


+
-

+
-

-

Авторизация





Зарегистрироваться

M

Дата и время

  • 05:49:57
     

Социальные ссылки


Наши приложения

  • Muzbank App Play Market
  • Muzbank Amazon App