MUZBANK


МУЗЫКАЛЬНО-ИНФОРМАЦИОННЫЙ БАНК





CChuck Berry • Johnny B Goode 2 (аккорды и текст - chords & lyrics)


805

Print

Видео «Johnny B Goode 2 (Chuck Berry)»

Видео клипы к песне подбираются автоматически сайтом youtube. Возможны некоторые несоответствия клипов песне.

↑ Спрятать рекламу ↑





[solo]
E|-------5s6-6-6-5s6-6-6-5s6-6-6---------------|
B|---6-8-5s6-6-6-5s6-6-6-5s6-6-6-9-6-----------|
G|-7---------------------------------8-6h7-----|
D|-----------------------------------------8-8-|
A|---------------------------------------------|
E|---------------------------------------------|

E|-----------------------|
B|-----------------------|
G|-6s7-7-7-6s7-7-7-6s7-7-|
D|-7s8-8-8-7s8-8-8-7s8-8-|
A|-----------------------|
E|-----------------------|

                         10 times
E|---------------------||---------||
B|-----6-8-6-----------||------6--||
G|-5s7-7-7-7-5s7-5-----||-8b10----||
D|-----------------8-5-||---------||
A|---------------------||---------||
E|---------------------||---------||

                              |rake|
E|------6-------8-6-----------------6-|
B|--------9-8-6-----9-8-6---------6---|
G|-8b10-------------------8-6h7-7-----|
D|------------------------------------|
A|------------------------------------|
E|------------------------------------|

E|-----------------------------|
B|-9-8-6------6------6---------|
G|-------8b10---8b10---8-6h7---|
D|---------------------------8-|
A|-----------------------------|
E|-----------------------------|



[Bass]

| Bb7 | === | === | === | Eb7 | === |
| Bb7 | === | F7  | === | Bb7 | Bb7 | (chorus) or
                              | F7  | (verse)

Тональность:

Это должно быть в ТОП-листе! - Топ-лист композиций



Назад
Рекомендуем посмотреть другие песни исполнителя «Chuck Berry»:

  • Комменты Fb ()
  • Комменты ВК



Добавить в Избранное Браузера
Сохранить здесь Очистить


x

0


+
-

+
-

-

Авторизация





Зарегистрироваться

M

Дата и время

  • 23:09:54
     

Социальные ссылки


Наши приложения

  • Muzbank App Play Market
  • Muzbank Amazon App