MUZBANK


МУЗЫКАЛЬНО-ИНФОРМАЦИОННЫЙ БАНК





CChuck Berry • Little Queenie (аккорды и текст - chords & lyrics)


642

Print

Видео «Little Queenie (Chuck Berry)»

Видео клипы к песне подбираются автоматически сайтом youtube. Возможны некоторые несоответствия клипов песне.

↑ Спрятать рекламу ↑





Intro
  Gtr I
E|----|-8-8-8-8-8-----------|
B|-5/-|-8-8-8-8-8-10-8------|
G|-5/-|-----------10-8h9----|
D|----|------------------10-|
A|----|---------------------|
E|----|---------------------|

E|-8-8-8-8-8-----------|-8-----------8-------8-|
B|-8-8-8-8-8-10-8------|-8-10-8------8-------8-|
G|-----------10-8h9----|---10-8h9-------9--9---|
D|------------------10-|----------10---10-10---|
A|---------------------|-----------------------|
E|---------------------|-----------------------|

                               Verse
E|-------8----8-11-----(11)--||-----------------|
B|-------8----8-10b12==(10)r-||-----------------|
G|--9--9----9----------------||-----------------|
D|-10-10---10----------------||-----------------|
A|---------------------------||-3-3-5-3-3-3-5-3-|
E|---------------------------||-1-1-1-1-1-1-1-1-|

E|-----------------|-----------------|
B|-----------------|-----------------|
G|-----------------|---5-7---5---7---|
D|-----------------|-5-5-7-5-5-5-7-5-|
A|-3-3-5-3-3-3-5-3-|-3-3-3-3-3-3-3-3-|
E|-1-1-1-1-1-1-1-1-|-----------------|

E|-----------------|-----------------|-----------------|
B|-----------------|-----------------|-----------------|
G|---5-7---5---7---|-----------------|-----------------|
D|-5-5-7-5-5-5-7-5-|-----------------|-----------------|
A|-3-3-3-3-3-3-3-3-|-5-5-7-5-5-5-7-5-|-5-5-7-5-5-5-7-5-|
E|-----------------|-3-3-3-3-3-3-3-3-|-3-3-3-3-3-3-3-3-|

E||-------------------||
B||o-----------------o||
G||----5-7---5---7----||
D||--5-5-7-5-5-5-7-5--||
A||o-3-3-3-3-3-3-3-3-o||
E||-------------------||

E||------------------|-----------------|-----------------|
B||o-----------------|-----------------|-----------------|
G||----5-7---5---7---|-----------------|---5-7---5---7---|
D||--5-5-7-5-5-5-7-5-|-----------------|-5-5-7-5-5-5-7-5-|
A||o-3-3-3-3-3-3-3-3-|-3-3-5-3-3-3-5-3-|-3-3-3-3-3-3-3-3-|
E||------------------|-1-1-1-1-1-1-1-1-|-----------------|

E|------------------|
B|------------------|
G|---5-7---5---7----|
D|-5-5-7-5-5-5-7-5--|
A|-3-3-3-3-3-3-3-3--|
E|------------------|

E|-----------------|-----------------|-----------------|
B|-----------------|-----------------|-----------------|
G|-----------------|-----------------|---5-7---5---7---|
D|-----------------|-----------------|-5-5-7-5-5-5-7-5-|
A|-3-3-5-3-3-3-5-3-|-3-3-5-3-3-3-5-3-|-3-3-3-3-3-3-3-3-|
E|-1-1-1-1-1-1-1-1-|-1-1-1-1-1-1-1-1-|-----------------|

E|-----------------|
B|-----------------|
G|---5-7---5---7---|
D|-5-5-7-5-5-5-7-5-|
A|-3-3-3-3-3-3-3-3-|
E|-----------------|

E|-----------------|-----------------|-----------------|
B|-----------------|-----------------|-----------------|
G|-----------------|-----------------|---5-7---5---7---|
D|-----------------|-----------------|-5-5-7-5-5-5-7-5-|
A|-5-5-7-5-5-5-7-5-|-5-5-7-5-5-5-7-5-|-3-3-3-3-3-3-3-3-|
E|-3-3-3-3-3-3-3-3-|-3-3-3-3-3-3-3-3-|-----------------|

E|-----------------|
B|-----------------|
G|---5-7---5---7---|
D|-5-5-7-5-5-5-7-5-|
A|-3-3-3-3-3-3-3-3-|
E|-----------------|

E|-----------------|-----------------|-----------------|
B|-----------------|-----------------|-----------------|
G|---5-7---5---7---|---5-7---5---7---|---5-7---5---7---|
D|-5-5-7-5-5-5-7-5-|-5-5-7-5-5-5-7-5-|-5-5-7-5-5-5-7-5-|
A|-3-3-3-3-3-3-3-3-|-3-3-3-3-3-3-3-3-|-3-3-3-3-3-3-3-3-|
E|-----------------|-----------------|-----------------|

E|-----------------|
B|-----------------|
G|---5-7---5---7---|
D|-5-5-7-5-5-5-7-5-|
A|-3-3-3-3-3-3-3-3-|
E|-----------------|

E|----------------------|---------------------|
B|----------------------|---------------------|
G|----------------------|---------------------|
D|---10-12---10-10-12---|-13---12---10-10-10--|
A|-8--8--8-8--8--8--8-8-|--8-8--8-8--8--8-10--|
E|----------------------|---------------------|

E|-------------------------|-------------------------|
B|-------------------------|-------------------------|
G|-------------------------|-------------------------|
D|-------------------------|-------------------------|
A|-10-10-12-10-10-10-12-10-|-13-10-12-10-10-10-12-10-|
E|--8--8--8--8--8--8--8--8-|--8--8--8--8--8--8--8--8-|

E|-----------------|-----------------|
B|-----------------|-----------------|
G|-----------------|-----------------|
D|-----------------|-----------------|
A|-5-5-7-5-8-5-7-5-|-5-5-7-5-5-5-7-5-|
E|-3-3-3-3-3-3-3-3-|-3-3-3-3-3-3-3-3-|

E|-------------------------|-------------------------||
B|-------------------------|-------------------------||
G|-------------------------|-------------------------||
D|-------------------------|-----------------------8-||
A|-10-10-12-10-13-10-12-10-|-10-10-12-10-10-10-12-10-||
E|--8--8--8--8--8--8--8--8-|--8--8--8--8--8--8--8--8-||

 Chorus
E|-----------------------|-----------------------|
B|-----------------------|-----------------------|
G|-----------------------|-----------------------|
D|--(8)----------------8-|--(8)----------------8-|
A|-(10)--12--10-10-12-10-|-(10)--12--10-10-12-10-|
E|--(8)---8---8--8--8--8-|--(8)---8---8--8--8--8-|

E|-----------------------|-----------------------|
B|-----------------------|-----------------------|
G|-----------------------|---------------------8-|
D|--(8)----------------8-|--(8)---------------10-|
A|-(10)--12--10-10-12-10-|-(10)--12--10-10-12--8-|
E|--(8)---8---8--8--8--8-|--(8)---8---8--8--8----|

E|-----------------------|-----------------------|
B|-----------------------|-----------------------|
G|--(8)----------------8-|--(8)------------------|
D|-(10)--12--10-10-12-10-|-(10)--12--10-10-12--8-|
A|--(8)---8---8--8--8--8-|--(8)---8---8--8--8-10-|
E|-----------------------|---------------------8-|

E|-----------------------|----------------------|
B|-----------------------|----------------------|
G|-----------------------|----------------------|
D|--(8)----------------8-|--(8)-----------------|
A|-(10)--12--10-10-12-10-|-(10)--12--10-10-12-5-|
E|--(8)---8---8--8--8--8-|--(8)---8---8--8--8-3-|

E|-------------|----------------|
B|-------------|----------------|
G|-------------|----------------|
D|--------3--3-|-(3)------------|
A|-5--7-5-5--5-|-(5)--7-5-5-5-7-|
E|-3--3-3-3--3-|-(3)--3-3-3-3-3-|

 1.
E|-------------------------|------------------------||
B|-------------------------|-----------------------o||
G|-------------------------|------------------------||
D|-----------------------8-|--(8)-------------------||
A|-10-10-12-10-10-10-12-10-|-(10)--12-10-10-10-12--o||
E|--8--8--8--8--8--8--8--8-|--(8)---8--8--8--8--8---||

  2.
E|-------------------------|-----------------------|
B|-------------------------|-------------------8---|
G|-------------------------|-------------------8h9-|
D|-----------------------8-|--(8)------------------|
A|-10-10-12-10-10-10-12-10-|-(10)--12-10-10--------|
E|--8--8--8--8--8--8--8--8-|--(8)---8--8--8--------|

   Guitar Solo
E||-----8----8---------|----8----8-----------||
B||o----8----8--10-8---|----8----8--10-8----o||
G||--------9----10-8h9-|-------9----10-8h9---||
D||--10----------------|-10------------------||
A||o-------------------|--------------------o||
E||--------------------|---------------------||

E|----8-8---|-8---8-|----8---8---------||-----8----8----------||
B|----8-8---|-8---8-|----8---8--10-8---||o----8----8--10-8---o||
G|----8---8-|-8-8---|------9----10-8h9-||--------9----10-8h9--||
D|-10-----7-|---7---|-10---------------||--10-----------------||
A|----------|-------|------------------||o-------------------o||
E|----------|-------|------------------||---------------------||

E|----8----8-----||---11b12----11b12----11b12-|
B|----8----8-----||---10b11----10b11----10b11-|
G|-------9-------||---------------------------|
D|-10------------||---------------------------|
A|---------------||---------------------------|
E|---------------||---------------------------|

E|-11b12----11b12-|-11b12----11b12----11b12--*|
B|-10b11----10b11-|-10b11----10b11----10b11--*|
G|----------------|--------------------------*|
D|----------------|--------------------------*|
A|----------------|--------------------------*|
E|----------------|--------------------------*|

I got lumps in my throat
When I saw her comin down the aisle
I got the wiggles in my knees
When she looked at me and sweetly smiled
Well there she is again
Standin over by the record machine
Well she looks like a model
On the cover of a magazine
But she's too cute
To be a minute over seventeen

Meanwhile I was thinkin'

Well if she's in the mood
No need to break it
I got the chance and I oughta take it
If she can dance we can make it
C'mon queenie let's shake it

I said go, go, go, little queenie
I said go, go, go, little queenie
I said go, go, go, little queenie

Won't someone tell me
Who's the queen standin over by the record machine
Well she looks like a model
On the cover of a magazine
But she's too cute
To be a minute over seventeen
I said go, go, go, little queenie
I said go, go, go, little queenie
I said go, go, go, little queenie

Meanwhile, I was still thinkin, hmmmm,
Well if it's a slow one
We'll omit it
If it's a rocker, then we'll get it
If it's a good one, she'll admit it
C'mon queenie, let's get with it

I said go, go, go, little queenie
I said go, go, go, little queenie
I said go, go, go, little queenie

I said go, go, go, little queenie
I said go, go, go, little queenie
I said go, go, go, little queenie...

Тональность:

Это должно быть в ТОП-листе! - Топ-лист композиций



Назад
Рекомендуем посмотреть другие песни исполнителя «Chuck Berry»:

  • Комменты Fb ()
  • Комменты ВК



Добавить в Избранное Браузера
Сохранить здесь Очистить


x

0


+
-

+
-

-

Авторизация





Зарегистрироваться

M

Дата и время

  • 19:56:00
     

Социальные ссылки


Наши приложения

  • Muzbank App Play Market
  • Muzbank Amazon App