MUZBANK


МУЗЫКАЛЬНО-ИНФОРМАЦИОННЫЙ БАНК





CClapton Eric • At The Palace Piano Break (аккорды и текст - chords & lyrics)


407

Print

Видео «At The Palace Piano Break (Clapton Eric)»

Видео клипы к песне подбираются автоматически сайтом youtube. Возможны некоторые несоответствия клипов песне.

↑ Спрятать рекламу ↑





E|-----------|---------------------------------------------------|
B|---Piano---|---------5--5-6--8-8--6-6--5-5-------------------5-|
G|---Intro---|-----5-7-----------------------7-7--5--------5-7---|
D|-----------|---5----------------------------------5----5-------|
A|-Free-Time-|---------------------------------------------------|
E|-----------|---------------------------------------------------|

E|-----------------------------|
B|-5-6--8-8--6-6--5-5----------|
G|--------------------7-7--5-7-|
D|-----------------------------|
A|-----------------------------|
E|-----------------------------|

E|------------------------------------------------------------------------|
B|----------5----------3-----3-----3--------------------------5-5---------|
G|------5-7---7-5--------5-----5-----5-----4-5-5-4------5-5-7-----7-7-5-4-|
D|--5/7-----------7-5------5-----5-----5-7---------7----------------------|
A|------------------------------------------------------------------------|
E|------------------------------------------------------------------------|

E|-----------------|
B|---------5-------|
G|-4-5-7-7---5-4---|
D|---------------7-|
A|-----------------|
E|-----------------|

E|-----------------------------------------------|
B|--5--------------------------------------------|
G|----7-5-7--------5-5--4-4----------------5-7---|
D|----------7-7--------------7-7--5-5--3/5-----5-|
A|-----------------------------------------------|
E|-----------------------------------------------|

E|-------------------------------------------|
B|-------5--5-6--8-8--6-6--5-5---------------|
G|---5-7-----------------------7-7-5---------|
D|-5---------------------------------7-5---5-|
A|---------------------------------------7---|
E|-------------------------------------------|

E|-------------------------------------------------------|
B|---------------------8-10-8----------------------------|
G|--5--------------5/9--------7-5-7--5----7--5-5---5---7-|
D|----7-5-------------------------------7--------7---7---|
A|--------7-5-3------------------------------------------|
E|-------------------------------------------------------|

E|----------------------------------|
B|---------5------------3-----3-----|
G|-----5-7---7-5----------5-----5---|
D|-5/7-----------7-5--------5-----5-|
A|----------------------------------|
E|----------------------------------|

SOLO 5:11 BU BD
E|--------8-10-12-15-17-15----13-12-----------------------------|
B|-5/8-10---------------------------15-15-13-----15>17

Тональность:

Это должно быть в ТОП-листе! - Топ-лист композиций



Назад
Рекомендуем посмотреть другие песни исполнителя «Clapton Eric»:

  • Комменты Fb ()
  • Комменты ВК



Добавить в Избранное Браузера
Сохранить здесь Очистить


x

0


+
-

+
-

-

Авторизация





Зарегистрироваться

M

Дата и время

  • 18:28:13
     

Социальные ссылки


Наши приложения

  • Muzbank App Play Market
  • Muzbank Amazon App