MUZBANK


МУЗЫКАЛЬНО-ИНФОРМАЦИОННЫЙ БАНК





CClapton Eric • Forever Man (аккорды и текст - chords & lyrics)


483

Print

Видео «Forever Man (Clapton Eric)»

Видео клипы к песне подбираются автоматически сайтом youtube. Возможны некоторые несоответствия клипов песне.

↑ Спрятать рекламу ↑





> Intro
> |---------------------------------|
> |---------------------------------|
> |---------------------------------|
> |---------------------------------|
> |-----------3-------(3h)-5/⁄/⁄/⁄/⁄|
> |---3-h-5-------5-----------------|
>
> Verse
>
> Bb C Dm
> Bb C Dm
> Bb C Dm Bb
> Bb C Dm
> Bb C Dm
> Repeat intro a few times. Then use the same chords for verse 2.
> Repeat intro a few times. Then go into the solo.
>
> |-------15b---15b----15br--13----15b----13-------------------|
> |-------------------------------------------15/⁄/⁄/⁄-15/⁄/⁄/⁄|
> |-------------------
> |---------------
> |-----------
> |-------
>
>>|-----------13b-------------------------------------------------------|
>|--13--15---------15/⁄/⁄-15/⁄/⁄/⁄-------------12---12---12---12---15/⁄/
> |------------------------------------------14b--14b--14b--14b----------
> |-------------
> |---------
> |------
>
>|------------------------------------------------------15br--13/⁄/⁄/⁄
>|----15--13-------------------------------------13--15------------15/⁄/
>|----------14---12-----12h14p12----12------------------------
>|------------------14-----------14-----14/⁄/⁄/⁄-------------
>|-----------------
>|--------------
>
> |---15b---15br-----13---15b-----13------------
> |-----------------------------------15/⁄/⁄/⁄/⁄
> |-----------------
> |-------------
> |----------
> |---------

Тональность:

Это должно быть в ТОП-листе! - Топ-лист композиций



Назад
Рекомендуем посмотреть другие песни исполнителя «Clapton Eric»:

  • Комменты Fb ()
  • Комменты ВК



Добавить в Избранное Браузера
Сохранить здесь Очистить


x

0


+
-

+
-

-

Авторизация





Зарегистрироваться

M

Дата и время

  • 19:59:55
     

Социальные ссылки


Наши приложения

  • Muzbank App Play Market
  • Muzbank Amazon App