MUZBANK


МУЗЫКАЛЬНО-ИНФОРМАЦИОННЫЙ БАНК





CClapton Eric • Going Down Slow (аккорды и текст - chords & lyrics)


528

Print

Видео «Going Down Slow (Clapton Eric)»

Видео клипы к песне подбираются автоматически сайтом youtube. Возможны некоторые несоответствия клипов песне.

↑ Спрятать рекламу ↑





intro riff ----------------X
----------------X----
----------------X---------
------2---4-----X-----------
--/4------------X------------

*there's a lot of pick scraping in the song so add it into the riffs to
create the best sound

main riff

--------X----X--------------------------------------
--------X----X---------------------------------------
--------X----X-----5/⁄/⁄/⁄----5/⁄/⁄/⁄----4/⁄/⁄/⁄------
--------X----X-----5/⁄/⁄/⁄----4/⁄/⁄/⁄----3/⁄/⁄/⁄-------
--------X----X------------------------------------------
----5---X----X-------------------------------------------

repeat this for the verses until you can hear the change in the music-
for that it goes like this:

--------------------------------------
------------------2---------------------
------5---(4)-----2----------------------
------5---(4)-----2-----------------------
------------------4------------------------
--------------------------------------------

Тональность:

Это должно быть в ТОП-листе! - Топ-лист композиций



Назад
Рекомендуем посмотреть другие песни исполнителя «Clapton Eric»:

  • Комменты Fb ()
  • Комменты ВК



Добавить в Избранное Браузера
Сохранить здесь Очистить


x

0


+
-

+
-

-

Авторизация





Зарегистрироваться

M

Дата и время

  • 02:31:59
     

Социальные ссылки


Наши приложения

  • Muzbank App Play Market
  • Muzbank Amazon App