MUZBANK


МУЗЫКАЛЬНО-ИНФОРМАЦИОННЫЙ БАНК





CClapton Eric • Hey Hey (аккорды и текст - chords & lyrics)


493

Print

Видео «Hey Hey (Clapton Eric)»

Видео клипы к песне подбираются автоматически сайтом youtube. Возможны некоторые несоответствия клипов песне.

↑ Спрятать рекламу ↑






e e q q q e e e e e e e e q q q e e e e e e q
||-----------3--0-----9-----9--7--0----------3--0-----9-----9--7--0--------
||-----------0--0-----8-----8----------------0--0-----8-----8--------------
||*----------1--1-----9-----9----------------1--1-----9-----9--------------
||*------------------------------------------------------------------------
||---2/7-----------------------------2/7-----------------------------7-----
||--------0--0--0--0-----0-----0--0-------0--0--0--0-----0-----0--0--------


q q q e e e e e e e e e e e q q q e e e e e e q
----3--2--0-----3-----3-----0--2--0----------3--0-----9-----9--7--0--------
----2--2--2-----2-----2-----2--2--2----------0--0-----8-----8--------------
----2--2--2-----2-----2-----2--2--2----------1--1-----9-----9--------------
---------------------------------------------------------------------------
⁄0--0--0-----0-----0-----0-----0-----2/7------------------------------7----
------------------------------------------0--0--0--0-----0-----0--0--------


q q e e e q e^ e q q q e e e e e e e e s s q
--------7------------3p2p0-2--0-----0-4-----------4p2--0------------0------
----10--7--10-------------------------5--0--5--0-----0---------------------
----8---8--8---------------------0h1--------4------------------0h1---------
---------------------------------------------------------------------------
/9----------------0--0-----0-----------------------------------------------
----7---7------7-----------------0-----------------------------0-----------


e e e e e e e e e e q e e e e e q e e q e e
-||-----0------0-----0-----0-----0------0-----0-----0-----0--0--0--0--0----
-||-----0------0-----0-----0-----0------0-----0-----0-----3--3--3--3--3----
*||-----1------1-----1-----1-----1------1-----1-----1-----1--1--1--1--1----
*||------------------------------------------------------------------------
-||------------------------------------------------------------------------
-||--0------0-----0-----0-----0-----0------0-----0-----0--0--0--0--0--0----
Hey hey ....

e e q q q q q q q q q q q q e e q e e e e q q q
0--0--0---------5-------------5-----------0--0--0--0--0--0--0--0-----------
3--3--0---------7/------------7-/---------3--3--3--3--3--3--3--0-----------
1--1--1---------6-------------6-----------1--1--1--1--1--1--1--1-----------
---------------------------------------------------------------------------
---------------------------------------------------------------------------
0--0--0--5--5-----5--5--5--5-----5--5--0--0--0--0--0--0--0--0--0--7--7-----

q q q q q q q q q e e e e e e e e s s q e e e e e q
-7-------------5-----------4-----------4p2----0-------0---||-0-------------
-9/------------7/----------5--0--5--0-------0-------------||-0--2-0-2-0-3--
-8-------------6-----------------4---------------0h1-----*||----1-1-1-1-1--
---------------------------------------------------------*||----2-2-2-2-2--
----------------------------------------------------------||---------------
---7--7--5--5----5---5--0------------------------0--------||---------------
Arms ......


i've changed a little bit of the ending , this part :-

e e e e e e e e s s q e e e e e q
-4-----------4p2----0-------0---||-0-------------||
-5--0--5--0-------0-------------||-0--2-0-2-0-3--||
-------4---------------0h1-----*||----1-1-1-1-1--||
-------------------------------*||----2-2-2-2-2--||
--------------------------------||---------------||
-----------------------0--------||---------------||

Тональность:

Это должно быть в ТОП-листе! - Топ-лист композиций



Назад
Рекомендуем посмотреть другие песни исполнителя «Clapton Eric»:

  • Комменты Fb ()
  • Комменты ВК



Добавить в Избранное Браузера
Сохранить здесь Очистить


x

0


+
-

+
-

-

Авторизация





Зарегистрироваться

M

Дата и время

  • 17:42:13
     

Социальные ссылки


Наши приложения

  • Muzbank App Play Market
  • Muzbank Amazon App