MUZBANK


МУЗЫКАЛЬНО-ИНФОРМАЦИОННЫЙ БАНК





CClapton Eric • Sunshine Of Your Love (аккорды и текст - chords & lyrics)


400

Print

Видео «Sunshine Of Your Love (Clapton Eric)»

Видео клипы к песне подбираются автоматически сайтом youtube. Возможны некоторые несоответствия клипов песне.

↑ Спрятать рекламу ↑






Intro: Play this 2x.
e|----------------------------------
B|----------------------------------
G|----------------------------------
D|-12-12-10-12----------------------
A|--------------12--11--10-----8----
E|--------------------------10---10-

Play this 2x also.
|-----------------------------------
|-----------------------------------
|-11-11-9--11----------------10~~---
|-10-10-8--10------------12------12-
|-12-12-10-12--12--11--10-----------
|-12-12-10-12-----------------------

Verse:
Verses 1, 2, and 4 are sung over, while verse 3 is the solo.

Play this 4x.
|-----------------------------------
|-----------------------------------
|-11-11-9--11----------------10~~---
|-10-10-8--10------------12------12-
|-12-12-10-12--12--11--10-----------
|-12-12-10-12-----------------------

Play this 2x.
|-----------------------------------
|-----------------------------------
|-12-12-10-12-----------------------
|-12-12-10-12--12-11-10----8~~------
|-10-10-8--10-----------10----10----
|-----------------------------------

Play this 2x.
|-----------------------------------
|-----------------------------------
|-11-11-9--11----------------10~~---
|-10-10-8--10------------12------12-
|-12-12-10-12--12--11--10-----------
|-12-12-10-12-----------------------

Chorus: Clapton solos over this the third time, also.

Play this 3x.
|---------------------------------
|---------------------------------
|-----------------5---------------
|-7-7-------------5-------5-------
|-7-7-------------3-------5-------
|-5-5---------------------3-------

Then...
|------------------------|---------------------------------
|------------------------|---------------------------------
|------------------------|-11-11-9--11--------------10~~---
|-7-77-77-77-77-77-77-77-|-10-10-8--10-----------12-----12-
|-7-77-77-77-77-77-77-77-|-12-12-10-12-12--11--10----------
|-5-55-55-55-55-55-55-55-|-10-10-8--10---------------------

Тональность:

Это должно быть в ТОП-листе! - Топ-лист композиций



Назад
Рекомендуем посмотреть другие песни исполнителя «Clapton Eric»:

  • Комменты Fb ()
  • Комменты ВК



Добавить в Избранное Браузера
Сохранить здесь Очистить


x

0


+
-

+
-

-

Авторизация





Зарегистрироваться

M

Дата и время

  • 14:40:30
     

Социальные ссылки


Наши приложения

  • Muzbank App Play Market
  • Muzbank Amazon App