MUZBANK


МУЗЫКАЛЬНО-ИНФОРМАЦИОННЫЙ БАНК





CClapton Eric • Unplugged (аккорды и текст - chords & lyrics)


339

Print

Видео «Unplugged (Clapton Eric)»

Видео клипы к песне подбираются автоматически сайтом youtube. Возможны некоторые несоответствия клипов песне.

↑ Спрятать рекламу ↑





|------------------------------4--2-0-4-5-5/7-5h7p5--3h5p3-3---3/6⁄0------|
|-5----5⁄2-0------------5--4/5--------------------------------------------|
|------------0h2p0--------------------------------------------------------|
|------------------2------------------------------------------------------|
|-------------------------------------------------------------------------|
|-------------------------------------------------------------------------|

|-----3---5---3----------------------------------|
|-3/5---5-------5-3------------------------------|
|-------------------4p2---2----------------------|
|-----------------------5---2h5-------------9----|
|--------------------------------5-3p0-----------|
|--------------------------------------3--0------|

* Repeat v. fast
|------|-------|-------|-------|--------------------------------|
|-7--5-|8--7-5-|8--7-5-|8--7-5-|8--7-5--4h5-4h5p4h5--8-5--------|
|------|-------|-------|-------|--------------------------------|
|------|-------|-------|-------|--------------------------------|
|------|-------|-------|-------|--------------------------------|
|------|-------|-------|-------|-------------------------0------|

|-7---------------------------------------|
|-8---------------------------------------|
|----9----------0h1-----------------------|
|------9-7----------2---------------------|
|---------------------2-------------------|
|-----------------------0-----------------|

|-----------------------------------0-------|
|-------------------------------------------|
|-------------------------------------------|
|----5/6--9-7------------7-7/9-6------------| Repeat this... :)
|-------------------------------------------|
|-------------(0)----0-0---------(0)----0-0-|

Тональность:

Это должно быть в ТОП-листе! - Топ-лист композиций



Назад
Рекомендуем посмотреть другие песни исполнителя «Clapton Eric»:

  • Комменты Fb ()
  • Комменты ВК



Добавить в Избранное Браузера
Сохранить здесь Очистить


x

0


+
-

+
-

-

Авторизация





Зарегистрироваться

M

Дата и время

  • 14:58:18
     

Социальные ссылки


Наши приложения

  • Muzbank App Play Market
  • Muzbank Amazon App