MUZBANK


МУЗЫКАЛЬНО-ИНФОРМАЦИОННЫЙ БАНК





CClapton Eric • Wonderful Tonight (аккорды и текст - chords & lyrics)


521

Print

Видео «Wonderful Tonight (Clapton Eric)»

Видео клипы к песне подбираются автоматически сайтом youtube. Возможны некоторые несоответствия клипов песне.

↑ Спрятать рекламу ↑






e:------------------------------------
B:------------------------------------
G:-14br14---14br-----14br14-----------
D:--------------14--------------------
repeat again but after second time play
e:------------------------------------
B:-12--13--/17⁄15---------------------
G:------------------------------------
D:------------------------------------

Eric sings:
It's late in the evening
G D7/F#
She's wonderin what clothes to wear
Eminor D7/F#
She puts on her makeup
G D7/F#
And brushes her long blonde hair
Eminor D7/F#
And then she asks me
C D7/F#
Do I look alright?
G D7/F# Eminor
And I say Yes, you look wonderful tonight
C D7/F# D7/F# G

solo starts at around 3:20
lick that clapton plays is in the same scale as
the solo so it is very easy to figure out
B:-----15--------------------------------
G:-14b----14br---------------------------
D:-------------14------------------------

Тональность:

Это должно быть в ТОП-листе! - Топ-лист композиций



Назад
Рекомендуем посмотреть другие песни исполнителя «Clapton Eric»:

  • Комменты Fb ()
  • Комменты ВК



Добавить в Избранное Браузера
Сохранить здесь Очистить


x

0


+
-

+
-

-

Авторизация





Зарегистрироваться

M

Дата и время

  • 21:01:04
     

Социальные ссылки


Наши приложения

  • Muzbank App Play Market
  • Muzbank Amazon App