MUZBANK


МУЗЫКАЛЬНО-ИНФОРМАЦИОННЫЙ БАНК





CCohen Leonard • Avalanche (аккорды и текст - chords & lyrics)


529

Print

Видео «Avalanche (Cohen Leonard)»

Видео клипы к песне подбираются автоматически сайтом youtube. Возможны некоторые несоответствия клипов песне.

↑ Спрятать рекламу ↑





Tuning: C F A# D# G C (standard, two full steps down)

Chords:

E/b:    x22100
E':     033200

Intro: Am

Am                     F
Well I stepped into an avalanche
Am         G      Am
It covered up my soul
Am                  F
When I am not this hunchback that you see
Am          G             Am
I sleep beneath a golden hill
C               E/b
You who wish to conquer pain
          Am                       F       E'      E
You must learn, learn to serve me well

You strike my side by accident
As you go down for your gold
The cripple here that you clothe and feed
Is neither starved nor cold
He does not ask for your company
Not at the centre, the centre of the world

When I am on a pedestal
You did not raise me there
Your laws do not compel me
To kneel grotesque and bare
I myself am the pedestal
For this ugly hump at which you stare

You who wish to conquer pain
You must learn what makes me kind
The crumbs of love that you offer me
They're the crumbs I've left behind
Your pain is no credential here
It's just the shadow, shadow of my wound

I have begun to long for you
I who have no greed
I have begun to ask for you
I who have no need
You say you've gone away from me
But I can feel you when you breathe

Do not dress in those rags for me
I know you are not poor
You don't love me quite so fiercely now
When you know that you are not sure
It is your turn, beloved
It is your flesh that I wear



Intro:

     Am
     |           .           .           .
 C|------0-----0-----0-----0-----0-----0-----0-----0--|
 G|------1-----1-----1-----1-----1-----1-----1-----1--|
D#|----2-----2-----2-----2-----2-----2-----2-----2----|
A#|--------2-----------2-----------2-----------2------|
 F|--0-----------------------0------------------------|
 C|--------------0-----------------------0------------|     (repeat)


Verse:

     Am
     |           .           .           .
 C|------0-----0-----0-----0-----0-----0-----0-----0--|
 G|------1-----1-----1-----1-----1-----1-----1-----0--|
D#|----2-----2-----2-----2-----2-----2-----2-----0----|
A#|--------2-----------2-----------2-----------0------|
 F|--0-----------------------0------------------------|
 C|--------------0-----------------------0------------|

     F
     |           .           .           .
 C|------1-----1-----1-----1-----1-----1-----1-----0--|
 G|------1-----1-----1-----1-----1-----1-----1-----0--|
D#|----2-----2-----2-----2-----2-----2-----2-----0----|
A#|--------3-----------3-----------3-----------0------|
 F|--------------3-----------------------3------------|
 C|--1-----------------------1------------------------|

     Am                      G
     |           .           .           .
 C|------0-----0-----0-----0-----3-----3-----3-----0--|
 G|------1-----1-----1-----0-----0-----0-----0-----0--|
D#|----2-----2-----2-----0-----0-----0-----0-----0----|
A#|--------2-----------0-----------0-----------0------|
 F|--0------------------------------------------------|
 C|--------------0-----------3-----------3------------|

     Am
     |           .           .           .
 C|------0-----0-----0-----0-----0-----0-----0-----0--|
 G|------1-----1-----1-----1-----1-----1-----1-----1--|
D#|----2-----2-----2-----2-----2-----2-----2-----2----|
A#|--------2-----------2-----------2-----------2------|
 F|--0-----------------------0------------------------|
 C|--------------0-----------------------0------------|

     Am
     |           .           .           .
 C|------0-----0-----0-----0-----0-----0-----0-----0--|
 G|------1-----1-----1-----1-----1-----1-----1-----0--|
D#|----2-----2-----2-----2-----2-----2-----2-----0----|
A#|--------2-----------2-----------2-----------0------|
 F|--0-----------------------0------------------------|
 C|--------------0-----------------------0------------|

     F
     |           .           .           .
 C|------1-----1-----1-----1-----1-----1-----1-----0--|
 G|------1-----1-----1-----1-----1-----1-----1-----0--|
D#|----2-----2-----2-----2-----2-----2-----2-----0----|
A#|--------3-----------3-----------3-----------0------|
 F|--------------3-----------------------3------------|
 C|--1-----------------------1------------------------|

     Am                      G
     |           .           .           .
 C|------0-----0-----0-----0-----3-----3-----3-----0--|
 G|------1-----1-----1-----0-----0-----0-----0-----0--|
D#|----2-----2-----2-----0-----0-----0-----0-----0----|
A#|--------2-----------0-----------0-----------0------|
 F|--0------------------------------------------------|
 C|--------------0-----------3-----------3------------|

     Am
     |           .           .           .
 C|------0-----0-----0-----0-----0-----0-----0-----0--|
 G|------1-----1-----1-----1-----1-----1-----1-----0--|
D#|----2-----2-----2-----2-----2-----2-----2-----0----|
A#|--------2-----------2-----------2-----------0------|
 F|--0-----------------------0------------------------|
 C|--------------0-----------------------0------------|

     C
     |           .           .           .
 C|------0-----0-----0-----0-----0-----0-----0-----0--|
 G|------1-----1-----1-----1-----1-----1-----1-----1--|
D#|----0-----0-----0-----0-----0-----0-----0-----0----|
A#|--------2-----------2-----------2-----------2------|
 F|--3-----------3-----------3-----------3------------|
 C|---------------------------------------------------|

     E/b
     |           .           .           .
 C|------0-----0-----0-----0-----0-----0-----0-----0--|
 G|------0-----0-----0-----0-----0-----0-----0-----0--|
D#|----1-----1-----1-----1-----1-----1-----1-----0----|
A#|--------2-----------2-----------2-----------0------|
 F|--2-----------------------2------------------------|
 C|--------------0-----------------------0------------|

     Am
     |           .           .           .
 C|------0-----0-----0-----0-----0-----0-----0-----0--|
 G|------1-----1-----1-----1-----1-----1-----1-----0--|
D#|----2-----2-----2-----2-----2-----2-----2-----0----|
A#|--------2-----------2-----------2-----------0------|
 F|--0-----------------------0------------------------|
 C|--------------0-----------------------0------------|

     F
     |           .           .           .
 C|------1-----1-----1-----1-----1-----1-----1-----1--|
 G|------1-----1-----1-----1-----1-----1-----1-----1--|
D#|----2-----2-----2-----2-----2-----2-----2------2---|
A#|--------3-----------3-----------3-----------3------|
 F|--------------3-----------------------3------------|
 C|--1-----------------------1------------------------|

     F
     |           .           .           .
 C|------1-----1-----1-----1-----1-----1-----1-----1--|
 G|------1-----1-----1-----1-----1-----1-----1-----1--|
D#|----2-----2-----2-----2-----2-----2-----2-----2----|
A#|--------3-----------3-----------3-----------3------|
 F|--------------3-----------------------3------------|
 C|--1-----------------------1------------------------|

     E'
     |           .           .           .
 C|------0-----0-----0-----0-----0-----0-----0-----0--|
 G|------0-----0-----0-----0-----0-----0-----0-----0--|
D#|----2-----2-----2-----2-----2-----2-----2-----2----|
A#|--------3-----------3-----------3-----------3------|
 F|--------------3-----------------------3------------|
 C|--0-----------------------0------------------------|

     E'
 C|------0-----0-----0-----0-----0-----0-----0-----0--|
 G|------0-----0-----0-----0-----0-----0-----0-----0--|
D#|----2-----2-----2-----2-----2-----2-----2-----0----|
A#|--------3-----------3-----------3-----------0------|
 F|--------------3-----------------------3------------|
 C|--0-----------------------0------------------------|

     E
     |           .           .           .
 C|------0-----0-----0-----0-----0-----0-----0-----0--|
 G|------0-----0-----0-----0-----0-----0-----0-----0--|
D#|----1-----1-----1-----1-----1-----1-----1-----0----|
A#|--------2-----------2-----------2-----------0------|
 F|--------------2-----------------------2------------|

Тональность:

Это должно быть в ТОП-листе! - Топ-лист композиций



Назад
Рекомендуем посмотреть другие песни исполнителя «Cohen Leonard»:

  • Комменты Fb ()
  • Комменты ВК



Добавить в Избранное Браузера
Сохранить здесь Очистить


x

0


+
-

+
-

-

Авторизация





Зарегистрироваться

M

Дата и время

  • 06:14:21
     

Социальные ссылки


Наши приложения

  • Muzbank App Play Market
  • Muzbank Amazon App