MUZBANK


МУЗЫКАЛЬНО-ИНФОРМАЦИОННЫЙ БАНК





CCohen Leonard • Chelsea Hotel (аккорды и текст - chords & lyrics)


478

Print

Видео «Chelsea Hotel (Cohen Leonard)»

Видео клипы к песне подбираются автоматически сайтом youtube. Возможны некоторые несоответствия клипов песне.

↑ Спрятать рекламу ↑





Capo 5th fret

Intro: C

     C          G            F        C
I remember you well in the Chelsea Hotel
                      G            Am
You were talking so brave and so sweet
 C         G          F       C
Giving me head on the unmade bed
           F                        G
While the limousines wait in the street
  Am                         F
Those were the reasons and that was New York
         C               E/b            Am
We were running for the money and the flesh
      F                           C
And that was called love for the workers in song
           F                         G
Probably still is for those of them left

        F             C
Ah but you got away, didn't you babe
                      E/b          Am
You just turned your back on the crowd
 F                          C
You got away, I never once heard you say
   F                 C
I need you, I don't need you
   F                 C
I need you, I don't need you
    F                    Am      G
And all of that jiving around

I remember you well in the Chelsea Hotel
You were famous, your heart was a legend
You told me again you preferred handsome men
But for me you would make an exception
And clenching your fist for the ones like us
Who are oppressed by the figures of beauty
You fixed yourself, you said, "Well never mind
We are ugly but we have the music."

And then you got away, didn't you babe
You just turned your back on the crowd
You got away, I never once heard you say
I need you, I don't need you
I need you, I don't need you
And all of that jiving around

         C          G                      F      C
I don't mean to suggest that I loved you the best
                      G            Am
I can't keep track of each fallen robin
     C          G            F        C
I remember you well in the Chelsea Hotel
       F                                   G
That's all, I don't even think of you that often



Intro:

    C
    |
A|--------0~~--|
E|--------1~~--|
C|-----0-------|
G|-------------|
D|--3----------|
A|-------------|


Verse:

    C           G           F           C
    |   .   .   .   .   .   |   .   .   .   .   .
A|-----(0)-(0)-----(3)-(3)-----(1)-(1)-----(0)-(0)---|
E|------1---1-------3---3-------1---1-------1---1----|
C|----0---0---0---4---4---0---2---2---0---0---0---0--|
G|---------------------------------------------------|
D|--3-----------------------------------3------------|
A|--------------3-----------1------------------------|

    C           G           Am
    |   .   .   .   .   .   |   .   .   .   .   .
A|-----(0)-(0)-----(3)-(3)-----(0)-(0)-----(0)-(0)---|
E|------1---1-------3---3-------1---0h1-----1---1----|
C|----0---0---0---4---4---0---2---2-------2---2---0--|
G|--------------------------------------2------------|
D|--3-----------------------0------------------------|
A|--------------3------------------------------------|

    C           G           F           C
    |   .   .   .   .   .   |   .   .   .   .   .
A|---------------------------------------------------|
E|------1---1-------3---3-------1---1-------1---1----|
C|----0---0---0---4---4---0---2---2---0---0---0---0--|
G|---------------------------------------------------|
D|--3-----------------------------------3------------|
A|--------------3-----------1------------------------|

    F                       G
    |   .   .   .   .   .   |   .   .   .   .   .
A|---------------------------------------------------|
E|------1---1-------1---1-------3---3-------3---3----|
C|----2---2---2---2---2---0---4---4---4---4---4---0--|
G|--------------3-----------------------5------------|
D|---------------------------------------------------|
A|--1-----------------------3------------------------|

    Am                      F
    |   .   .   .   .   .   |   .   .   .   .   .
A|---------------------------------------------------|
E|------1---0h1-----1---0-------1---1-------1---1----|
C|----2---2-------2---2---0---2---2---2---2---2---0--|
G|--------------2-----------------------3------------|
D|--0------------------------------------------------|
A|--------------------------1------------------------|

    C           E/b         Am
    |   .   .   .   .   .   |   .   .   .   .   .
A|---------------------------------------------------|
E|------1---1-------0---0-------1---0h1-----1---0----|
C|----0---0---0---1---1---0---2---2-------2---2---0--|
G|--------------------------------------2------------|
D|--3-----------2-----------0------------------------|
A|---------------------------------------------------|

    F                       C
    |   .   .   .   .   .   |   .   .   .   .   .
A|---------------------------------------------------|
E|------1---1-------1---1-------1---1-------1---1----|
C|----2---2---2---2---2---0---0---0---0---0---0---0--|
G|--------------3-----------------------2------------|
D|--------------------------3------------------------|
A|--1------------------------------------------------|

    F                       G
    |   .   .   .   .   .   |   .   .   .   .   .
A|---------------------------------------------------|
E|------1---1-------1---1-------3---3-------3---3----|
C|----2---2---2---2---2---0---4---4---4---4---4---0--|
G|--------------3-----------------------5------------|
D|---------------------------------------------------|
A|--1-----------------------3------------------------|


Chorus:

    F                       C
    |   .   .   .   .   .   |   .   .   .   .   .
A|---------------------------------------------------|
E|------1---1-------1---1-------1---1-------1---1----|
C|----2---2---2---2---2---0---0---0---0---0---0---0--|
G|--------------3-----------------------2------------|
D|--------------------------3------------------------|
A|--1------------------------------------------------|

    C           E/b         Am
    |   .   .   .   .   .   |   .   .   .   .   .
A|---------------------------------------------------|
E|------1---1-------0---0-------1---0h1-----1---0----|
C|----0---0---0---1---1---0---2---2-------2---2---0--|
G|--------------------------------------2------------|
D|--3-----------2-----------0------------------------|
A|---------------------------------------------------|

    F                       C
    |   .   .   .   .   .   |   .   .   .   .   .
A|---------------------------------------------------|
E|------1---1-------1---1-------1---1-------1---1----|
C|----2---2---2---2---2---0---0---0---0---0---0---0--|
G|--------------3-----------------------2------------|
D|--------------------------3------------------------|
A|--1------------------------------------------------|

    F                       C
    |   .   .   .   .   .   |   .   .   .   .   .
A|---------------------------------------------------|
E|------1---1-------1---1-------1---1-------1---1----|
C|----2---2---2---2---2---0---0---0---0---0---0---0--|
G|--------------3-----------------------2------------|
D|--------------------------3------------------------|
A|--1------------------------------------------------|

    F                       C
    |   .   .   .   .   .   |   .   .   .   .   .
A|---------------------------------------------------|
E|------1---1-------1---1-------1---1-------1---1----|
C|----2---2---2---2---2---0---0---0---0---0---0---0--|
G|--------------3-----------------------2------------|
D|--------------------------3------------------------|
A|--1------------------------------------------------|

    F                       Am
    |   .   .   .   .   .   |   .   .   .   .   .
A|---------------------------------------------------|
E|------1---1-------1---1-------1---0h1-----0h1-0----|
C|----2---2---2---2---2---0---2---2-------2-------0--|
G|--------------3-----------------------2------------|
D|--------------------------0------------------------|
A|--1------------------------------------------------|

    G
    |   .   .   .   .   .
A|---------------------------|
E|------3---3-------3---3----|
C|----4---4---4---4---4---0--|
G|--------------5------------|
D|---------------------------|
A|--3------------------------|


Тональность:

Это должно быть в ТОП-листе! - Топ-лист композиций



Назад
Рекомендуем посмотреть другие песни исполнителя «Cohen Leonard»:

  • Комменты Fb ()
  • Комменты ВК



Добавить в Избранное Браузера
Сохранить здесь Очистить


x

0


+
-

+
-

-

Авторизация





Зарегистрироваться

M

Дата и время

  • 02:16:49
     

Социальные ссылки


Наши приложения

  • Muzbank App Play Market
  • Muzbank Amazon App