MUZBANK


МУЗЫКАЛЬНО-ИНФОРМАЦИОННЫЙ БАНК





CCohen Leonard • Minute Prologue (аккорды и текст - chords & lyrics)


365

Print

Видео «Minute Prologue (Cohen Leonard)»

Видео клипы к песне подбираются автоматически сайтом youtube. Возможны некоторые несоответствия клипов песне.

↑ Спрятать рекламу ↑





Tuning: D G C F A D (standard, full step down)

Intro: A

           A
I've been listening
                C#m
To all the dissention
           A
I've been listening
            C#m
To all the pain
Bm
And I feel that no matter

What I do for you
A
It's going to come back again
C#m                     F#m
But I think that I can heal it
        C#m             F#m
But I think that I can heal it
       C#m                          D
I'm a fool, but I think that I can heal it
           A    E
With this song



Intro:

    A
    |   .   .
E|------0---0----|
B|------2---2----|
G|----2---2---2--|
D|---------------|
A|--0------------|
E|---------------|


Verse:

    A                       C#m
    |   .   .   .   .   .   |   .   .   .   .   .
E|---------------------------------------------------|
B|------2---2-------2---2-------5---5-------5---5----|
G|------2---2-------2---2-------6---6-------6---6----|
D|----2---2---2---2---2---2---6---6---6---6---6---6--|
A|--0-----------0-----------4-----------4------------|
E|---------------------------------------------------|

    A                       C#m
    |   .   .   .   .   .   |   .   .   .   .   .
E|---------------------------------------------------|
B|------2---2-------2---2-------5---5-------5---5----|
G|------2---2-------2---2-------6---6-------6---6----|
D|----2---2---2---2---2---2---6---6---6---6---6---0--|
A|--0-----------0-----------4-----------4------------|
E|---------------------------------------------------|

    Bm
    |   .   .   .   .   .   |   .   .   .   .   .
E|---------------------------------------------------|
B|------3---3-------3---3-------3---3-------3---3----|
G|------4---4-------4---4-------4---4-------4---4----|
D|----4---4---4---4---4---4---4---4---4---4---4---4--|
A|--2-----------2-----------2-----------2------------|
E|---------------------------------------------------|

    A
    |   .   .   .   .   .   |   .   .   .   .   .
E|---------------------------------------------------|
B|------2---2-------2---2-------2---2-------2---2----|
G|------2---2-------2---2-------2---2-------2---2----|
D|----2---2---2---2---2---2---2---2---2---2---2---0--|
A|--0-----------0-----------0-----------0------------|
E|---------------------------------------------------|

    C#m                     F#m
    |   .   .   .   .   .   |   .   .   .   .   .
E|------------------------------5---5-------5---5----|
B|------5---5-------5---5-------7---7-------7---7----|
G|------6---6-------6---6-----6---6---6---6---6---6--|
D|----6---6---6---6---6---6-4-----------4------------|
A|--4-----------4------------------------------------|
E|---------------------------------------------------|

    C#m                     F#m
    |   .   .   .   .   .   |   .   .   .   .   .
E|------------------------------5---5-------5---5----|
B|------5---5-------5---5-------7---7-------7---7----|
G|------6---6-------6---6-----6---6---6---6---6---6--|
D|----6---6---6---6---6---6-4-----------4------------|
A|--4-----------4------------------------------------|
E|---------------------------------------------------|

    C#m                     D
    |   .   .   .   .   .   |   .   .   .   .   .
E|------------------------------2---2-------2---2----|
B|------5---5-------5---5-------3---3-------3---3----|
G|------6---6-------6---6-----2---2---2---2---2---2--|
D|----6---6---6---6---6---6-0-----------0------------|
A|--4-----------4------------------------------------|
E|---------------------------------------------------|

    A                       E
    |   .   .   .   .   .   |   .   .   .   .   .
E|----------------------------------------------------|
B|------2---2-------2---2--------0---0-------0---0----|
G|------2---2-------2---2--------1---1-------1---1----|
D|----2---2---2---2---2---2----2---2---2---2---2---2--|
A|--0-----------0-------------------------------------|
E|--------------------------0------------0------------|


Тональность:

Это должно быть в ТОП-листе! - Топ-лист композиций



Назад
Рекомендуем посмотреть другие песни исполнителя «Cohen Leonard»:

  • Комменты Fb ()
  • Комменты ВК



Добавить в Избранное Браузера
Сохранить здесь Очистить


x

0


+
-

+
-

-

Авторизация





Зарегистрироваться

M

Дата и время

  • 07:27:12
     

Социальные ссылки


Наши приложения

  • Muzbank App Play Market
  • Muzbank Amazon App