MUZBANK


МУЗЫКАЛЬНО-ИНФОРМАЦИОННЫЙ БАНК





CCohen Leonard • Sisters of Mercy (аккорды и текст - chords & lyrics)


446

Print

Видео «Sisters of Mercy (Cohen Leonard)»

Видео клипы к песне подбираются автоматически сайтом youtube. Возможны некоторые несоответствия клипов песне.

↑ Спрятать рекламу ↑





Tuning: D G C F A D (standard, full step down)

        A          D          A          E         A      D     A
Oh the sisters of mercy, they are not departed or gone
           C#m         G#m        C#m      G#m           E   Esus4   E
They were waiting for me when I thought I just cannot go on
           D               A        G           F#m            E   Esus4   E
And they brought me their comfort, later they brought me this song
          A           D           A                E           A   D Dsus4 A E
Oh yes I hope you run into them, you who've been travelling so long

Yes you who must leave everything that you cannot control
It begins with your family, but soon it comes around to your soul
Well I've been where you're hanging and I think I can see how you're pinned
When you're not feeling holy, your loneliness tells you you've sinned

Well they lay down beside me, I made my confession to them
They touched both my eyes I touched the dew on their hem
If your life is a leaf that the seasons tear off and condemn
Ah they will bind you with love that is graceful and green as a stem

When I left they were sleeping, I hope you run into them soon
Don't turn on the lights, you can read their address by the moon
And you won't make me jealous if I hear that they've sweetened your night
We weren't lovers like that and besides it would still be all right

Verse:

     A           D           A           E
     |   .   .   .   .   .   |   .   .   .   .   .
F#|------0---0-------2---2-------0---0---0------------|
C#|------2---2-------3---3-------2---2-----------0----|
 A|----2---2---2---2---2---2---2---2---2-----1--------|
 E|--------------0-------------------------2---2---2--|
 B|--0-----------------------0------------------------|
F#|--------------------------------------0------------|

     A           D           A
     |   .   .   .   .   .   |   .   .   .   .   .
F#|----------0---2-------2---0---------------0--------|
C#|------2-----------3-----------2---0---2-------0----|
 A|----2---2---2---2---2---2---2---2---2---2---2---2--|
 E|--------------0------------------------------------|
 B|--0-----------------------0------------------------|
F#|---------------------------------------------------|

     C#m         G#m/d#      C#m         G#m/d#
     |   .   .   .   .   .   |   .   .   .   .   .
F#|------4-----------4-----------4-----------4--------|
C#|------5---5-------4---4-------5---5-------4---4----|
 A|----6---6---6---4---4---4---6---6---6---4---4---4--|
 E|---------------------------------------------------|
 B|--4-----------4h6---------4-----------4h6----------|
F#|---------------------------------------------------|

     E
     |   .   .   .   .   .   |   .   .   .   .   .
F#|---------------------------------------------------|
C#|--0---------------0-----------0---------------0----|
 A|------1---1---2-------2---1-------1-------1--------|
 E|----2---2---2---2---2---2---2---2---2---2---2---2--|
 B|----------2---2-------2----------------------------|
F#|--0-----------------------0-----------0------------|

     D           A           G           F#m
     |   .   .   .   .   .   |   .   .   .   .   .
F#|--2-------2---0------------------------------------|
C#|------3-----------2---2---3-----------2------------|
 A|----2---2---2---2---2---2-----4---4-------2---2----|
 E|--0-------------------------5---5---5---4---4---4--|
 B|--------------0------------------------------------|
F#|--------------------------3-----------2------------|

     E
     |   .   .   .   .   .   |   .   .   .   .   .
F#|---------------------------------------------------|
C#|--0---------------0-----------0--------------------|
 A|------1---1---2-------2---1-------1-------1---1----|
 E|----2---2---2---2---2---2---2---2---2---2---2---2--|
 B|----------2---2-------2----------------------------|
F#|--0-----------------------0-----------0------------|

     A           D           A           E
     |   .   .   .   .   .   |   .   .   .   .   .
F#|------0-----------2-----------0-------0------------|
C#|----------2-----------3-----------2-----------0----|
 A|----2---2---2---2---2---2---2---2---2-----1--------|
 E|--------------0-------------------------2---2---2--|
 B|--0-----------------------0------------------------|
F#|--------------------------------------0------------|

     A           D
     |   .   .   .   .   .   |   .   .   .   .   .
F#|----------0---2-------2-------2---2---3---2---0----|
C#|------2-----------3--------------------------------|
 A|----2---2---2---2---2---2---2---2---2---2---2---2--|
 E|--------------0---------------0---0---0---0--------|
 B|--0-----------------------0------------------------|
F#|---------------------------------------------------|

     D                                   A
     |   .   .   .   .   .   |   .   .   .   .   .
F#|------2---2---3---2---0-------2---------------0----|
C#|--3-----------------------3-------3---0---2--------|
 A|----2---2---2---2---2---2---2---2---2---2---2---2--|
 E|------0---0---0---0-----------0--------------------|
 B|--0-----------------------0-------0---0---0--------|
F#|---------------------------------------------------|

     A           E
     |   .   .   .   .   .   |   .   .   .   .   .
F#|--------------0-----------0-----------0-----------0------------|
C#|------0---2-------0---0-------0---0-------0---0-------0---0----|
 A|----2---2---2---1---1---1---1---1---1---1---1---1---1---1---1--|
 E|----------------------2-----------2-----------2-----------2----|
 B|--0------------------------------------------------------------|
F#|--------------0-----------0-----------0-----------0------------|

Тональность:

Это должно быть в ТОП-листе! - Топ-лист композиций



Назад
Рекомендуем посмотреть другие песни исполнителя «Cohen Leonard»:

  • Комменты Fb ()
  • Комменты ВК



Добавить в Избранное Браузера
Сохранить здесь Очистить


x

0


+
-

+
-

-

Авторизация





Зарегистрироваться

M

Дата и время

  • 19:48:54
     

Социальные ссылки


Наши приложения

  • Muzbank App Play Market
  • Muzbank Amazon App