MUZBANK


МУЗЫКАЛЬНО-ИНФОРМАЦИОННЫЙ БАНК





CCohen Leonard • Winter Lady (аккорды и текст - chords & lyrics)


513

Print

Видео «Winter Lady (Cohen Leonard)»

Видео клипы к песне подбираются автоматически сайтом youtube. Возможны некоторые несоответствия клипов песне.

↑ Спрятать рекламу ↑





Chords:

Amaj7:    x0665x
D':       x5403x
D'/a:     x0504x

Intro: Amaj7.. ...|D'.. ...|D'.. ...|

  D'      Amaj7 D'     C
Trav'ling lady, stay awhile
  D'       Amaj7    D'
Until the night is over
     D'     Amaj7 D'        C
I'm just a station on your way
    D'      Amaj7    D'
I know I'm not your lover

     D'/a           Am7
Well I lived with a child of snow
D'/a          Am7
When I was a soldier
    D'/a            Am7
And I fought every man for her
   D'/a                Am7      D'
Until the nights grew colder

She used to wear her hair like you
Except when she was sleeping
And then she'd weave it on a loom
Of smoke and gold and breathing

And why are you so quiet now
Standing there in the doorway?
You chose your journey long before
You came upon this highway

Trav'ling lady, stay awhile
Until the night is over
I'm just a station on your way
I know I'm not your lover




Intro:

    Amaj7                   D'
    |   .   .   .   .   .   |   .   .   .   .   .   |   .   .   .   .   .
E|---------------------------------------------------------------------------|
B|------5---5-------5---5-------3---3-------3---3-------3---3-------3---3----|
G|------6---6-------6---6-------0---0-------0---0-------0---0-------0---0----|
D|----6---6---6---6---6---0---4---4---4---4---4---4---4---4---4---4---4---4--|
A|--0-----------0-----------5-----------5-----------5-----------5------------|
E|---------------------------------------------------------------------------|


Verse:

    D'          Amaj7       D'          C
    |   .   .   .   .   .   |   .   .   .   .   .
E|---------------------------------------------------|
B|------3---3-------5---5-------3---3-------1---1----|
G|------0---0-------6---6-------0---0-------0---0----|
D|----4---4---0---6---6---0---4---4---4---2---2---2--|
A|--5-----------0-----------5-----------3------------|
E|---------------------------------------------------|

    D'          Amaj7       D'
    |   .   .   .   .   .   |   .   .   .   .   .   |   .   .
E|---------------------------------------------------------------|
B|------3---3-------5---5-------3---3-------5---5-------3---3----|
G|------0---0-------6---6-------0---0-------0---0-------0---0----|
D|----4---4---0---6---6---0---4---4---4---4---4---4---4---4---4--|
A|--5-----------0-----------5-----------5-----------5------------|
E|---------------------------------------------------------------|  (2x)


Bridge:

    D'/a                    Am7
    |   .   .   .   .   .   |   .   .   .   .   .
E|---------------------------------------------------|
B|------3---3-------3---3-------1---1-------1---1----|
G|------0---0-------0---0-------0---0-------0---0----|
D|----4---4---4---4---4---4---2---2---2---2---2---2--|
A|--0-----------0-----------0-----------0------------|
E|---------------------------------------------------|  (x4)

    D'
    |   .   .   .   .   .   |   .   .   .   .   .
E|---------------------------------------------------|
B|------3---3-------5---5-------3---3-------5---5----|
G|------0---0-------0---0-------0---0-------0---0----|
D|----4---4---4---4---4---4---4---4---4---4---4---4--|
A|--5-----------5-----------5-----------5------------|
E|---------------------------------------------------|

Тональность:

Это должно быть в ТОП-листе! - Топ-лист композиций



Назад
Рекомендуем посмотреть другие песни исполнителя «Cohen Leonard»:

  • Комменты Fb ()
  • Комменты ВК



Добавить в Избранное Браузера
Сохранить здесь Очистить


x

0


+
-

+
-

-

Авторизация





Зарегистрироваться

M

Дата и время

  • 00:52:54
     

Социальные ссылки


Наши приложения

  • Muzbank App Play Market
  • Muzbank Amazon App