MUZBANK


МУЗЫКАЛЬНО-ИНФОРМАЦИОННЫЙ БАНК





CCohen Leonard • You Know Who I Am (аккорды и текст - chords & lyrics)


475

Print

Видео «You Know Who I Am (Cohen Leonard)»

Видео клипы к песне подбираются автоматически сайтом youtube. Возможны некоторые несоответствия клипов песне.

↑ Спрятать рекламу ↑





Intro: Am

   Am            Bm
I cannot follow you, my love
Am                 Bm
You cannot follow me
D                      A
I am the distance you put between
            G    G/F#            E
All of the moments that we will be

      D        A
You know who I am
         D            A
You've stared at the sun
     D        A
Well I am the one who loves
  G            G/F#      E      Am
Changing from nothing to one

 Am                   Bm
Sometimes I need you naked
Am                    Bm
Sometimes I need you wild
D                        A
I need you to carry my children in
       G      G/F#         E
And I need you to kill a child

      D        A
You know who I am
         D            A
You've stared at the sun
     D        A
Well I am the one who loves
  G            G/F#      E      Am
Changing from nothing to one

    Am               Bm
If you should ever track me down
Am                Bm
I will surrender there
D                               A
And I will leave with you one broken man
             G       G/F#   E
Whom I will teach you to repair

      D        A
You know who I am
         D            A
You've stared at the sun
     D        A
Well I am the one who loves
  G            G/F#      E      Am
Changing from nothing to one

   Am            Bm
I cannot follow you, my love
Am                 Bm
You cannot follow me
D                      A
I am the distance you put between
            G     G/F#           E
All of the moments that we will be

      D        A
You know who I am
         D            A
You've stared at the sun
     D        A
Well I am the one who loves
  G            G/F#      E      Am
Changing from nothing to one

Intro:
(h means hammer-on)
    Am
E|---------------------------------------------------|
B|------0---1---3---1---0h1-----0---1---3---1---0h1--|
G|------2---2---2---2---2-------2---2---2---2---2----|
D|----2---2---2---2---2-------2---2---2---2---2------|
A|--0-----------------------0------------------------|
E|---------------------------------------------------|
    Am
E|---------------------------------------------------|
B|------0---1---3---1---0h1-----0---1---3---1---0h1--|
G|------2---2---2---2---2-------2---2---2---2---2----|
D|----2---2---2---2---2-------2---2---2---2---2------|
A|--0-----------------------0------------------------|
E|---------------------------------------------------|

1st verse:
    Am                      Bm
E|---------------------------------------------------|
B|------1---1-------1---0-------3---3-------3---3----|
G|------2---2-------2---0-------4---4-------4---4----|
D|----2---2---2---2---2---0---4---4---4---4---4---4--|
A|--0-----------0-----------2-----------2------------|
E|---------------------------------------------------|
    Am                      Bm
E|------------------------------------------2---2----|
B|------1---1-------1---0-------3---2h3-----3---3----|
G|------2---2-------2---0-------4---4-----4---4---4--|
D|----2---2---2---2---2---0---4---4------------------|
A|--0-----------0-----------2-----------2------------|
E|---------------------------------------------------|
    D                       A
E|------2---2-------2---2-------0---0-------0---0----|
B|------3---3-------3---3-------2---0h2-----2---2----|
G|----2---2---2---2---2---2---2---2-------2---2---0--|
D|--0-----------0-----------------------2------------|
A|--------------------------0------------------------|
E|---------------------------------------------------|
    G           G/F#        E
E|------------------------------------------0---0----|
B|------0---0-------0---0-------0---0-------0---0----|
G|------0---0-------0---0-------1---1-----1---1---1--|
D|----0---0---0---0---0---0---2---2---2--------------|
A|--------------------------------------2------------|
E|--3-----------2-----------0------------------------|

1st chorus:
    D           A                      D
E|------2---2-------0---0-------0---0-------2---2----|
B|------3---3-------2---0h2-----2---2-------3---3----|
G|----2---2---2---2---2-------2---2---2---2---2---2--|
D|--0-----------------------2-----------0------------|
A|--------------0------------------------------------|
E|---------------------------------------------------|
    A                       D           A
E|------0---0-------0---0-------2---2-------0---0----|
B|------2---0h2-----2---2-------3---3-------2---2----|
G|----2---2-------2---2---2---2---2---2---2---2---0--|
D|--------------2-----------0------------------------|
A|--0-----------------------------------0------------|
E|---------------------------------------------------|
    G           G/F#        E
E|---------------------------------------------------|
B|------0---0-------0---0-------0---0-------0---0----|
G|------0---0-------0---0-------1---0h1-----0h1-1----|
D|----0---0---0---0---0---0---2---2-------2-------2--|
A|---------------------------------------------------|
E|--3-----------2-----------0-----------0------------|
    E                       Am
E|------------------------------0---0---0---0---0----|
B|------0---0-------0---0-------0---1---3---1---0h1--|
G|------0h1-1-------0h1-1-----2---2---2---2---2------|
D|----2-------2---2-------2--------------------------|
A|--------------------------0------------------------|
E|--0-----------0------------------------------------|
    Am
E|------0---0---0---0---0----|
B|------0---1---3---1---0h1--|
G|----2---2---2---2---2------|
D|---------------------------|
A|--0------------------------|
E|---------------------------|

Outro:
    Am
E|------3---1---0---1---0-------3---1---0---1---0----|
B|------1---1---1---1---1-------1---1---1---1---1----|
G|----2---2---2---2---2---2---2---2---2---2---2---2--|
D|---------------------------------------------------|
A|--0-----------------------0------------------------|
E|---------------------------------------------------|
    Am
E|---------------------------|
B|--1------------------------|
G|--2------------------------|
D|--2------------------------|
A|--0------------------------|
E|---------------------------|

Тональность:

Это должно быть в ТОП-листе! - Топ-лист композиций



Назад
Рекомендуем посмотреть другие песни исполнителя «Cohen Leonard»:

  • Комменты Fb ()
  • Комменты ВК



Добавить в Избранное Браузера
Сохранить здесь Очистить


x

0


+
-

+
-

-

Авторизация





Зарегистрироваться

M

Дата и время

  • 17:45:36
     

Социальные ссылки


Наши приложения

  • Muzbank App Play Market
  • Muzbank Amazon App