MUZBANK



A MOST COMPLETE BANK OF MUSIC INFORMATION

МУЗЫКАЛЬНО-ИНФОРМАЦИОННЫЙ БАНК







    CCold • Makes Her Sick (аккорды и текст - chords & lyrics)


    247

    Print

    Видео «Makes Her Sick (Cold)»

    Видео клипы к песне подбираются автоматически сайтом youtube. Возможны некоторые несоответствия клипов песне.

    ↑ Спрятать рекламу ↑






     
    
    
    Intro 
    ------------------------------------------------------------
    --777777777777777-999999999-11-11-11-11-11-11---------------
    ------------------------------------------------------------
    ------------------------------------------------------------
    ------------------------------------------------------------
    ------------------------------------------------------------
    
    
    Verse
    ------------------------------------------------------------
    ------------------------------------------------------------
    ------------------------------------------------------------
    ------------------------------------------------------------
    --4-4--4-44--4-44-4-44-0-5/66-6-66-6-66-6-88-7-6------------
    --2-2--2-22--2-22-2-22-0-3/44-4-44-4-44-4-66-5-4------------
    
    
    Chorus
    ------------------------------------------------------------
    ------------------------------------------------------------
    --7-6--4/9-7---7-6--4/9-7-----------------------------------
    --5-6--4/9-7---5-6--4/9-7-----------------------------------
    --0-6--4/9-7---0-6--4/9-7-----------------------------------
    ------------------------------------------------------------
     

    Тональность:

    Это должно быть в ТОП-листе! - Топ-лист композиций



    Назад
    Рекомендуем посмотреть другие песни исполнителя «Cold»:

    • Комменты Fb ()
    • Комменты ВК



    Добавить в Избранное Браузера
    Сохранить здесь Очистить


    x

    0


    +
    -

    +
    -

    -

    Авторизация





    Зарегистрироваться

    M

    Дата и время

    • 11:24:37
       

    Социальные ссылки


    Наши приложения

    • Muzbank App Play Market
    • Muzbank Amazon App