MUZBANK


МУЗЫКАЛЬНО-ИНФОРМАЦИОННЫЙ БАНК





CCradle Of Filth • No Time To Cry (аккорды и текст - chords & lyrics)


697

Print

Видео «No Time To Cry (Cradle Of Filth)»

Видео клипы к песне подбираются автоматически сайтом youtube. Возможны некоторые несоответствия клипов песне.

↑ Спрятать рекламу ↑







these tabs have been submited from tagmister@yahoo.com
the son is in drop D tuning 
this is only the chorus

chorus...

E---------------------------------
B---------------------------------
G---------------------------------
D99--9h7h5--55555---22--22h4-44444
A99--9h7h5--55555---22--22h4-44444
E99--9h7h5--55555---22--22h4-44444

this is the other part i forgot which one. pick this part fast

E---------------------------------------------------
B00000h33333h22222h33333--000000h333333h222222h33333
G---------------------------------------------------
D---------------------------------------------------
A---------------------------------------------------
E---------------------------------------------------

E-33333h22222h33333-33333h22222h33333
B0-----------------2-----------------
G------------------------------------
D------------------------------------
A------------------------------------
E------------------------------------

and i need to figure out the rest...








It's just a feeling
I get sometimes
A feeling
Sometimes
And I get frightened
Just like you
I get frightened too
But it's

No, no, no
No time for heartache
No, no, no
No time to run and hide
No, no, no
No time for breaking down
No, no, no
No time to cry

Sometimes in the world as is you've
Got to shake the hand that feeds you
It's just like Adam says
It's not so hard to understand
It's just like always coming down on
Just like Jesus never came and
What did you expect to find
It's just like always here again it's

No, no, no
No time for heartache
No, no, no
No time to run and hide
No, no, no
No time for breaking down
No, no, no
No time to cry

Everything will be alright
Everything will turn out fine
Some nights I still can't sleep
And the voices pass with time
And I keep

Everything will be alright
Everything will turn out fine
Some nights I still can't sleep
And the voices pass with time
And I keep

No time for tears
No time to run and hide
No time to be afraid of fear
I keep no time to cry

No, no, no
No time for heartache
No, no, no
No time to run and hide
No, no, no
No time for breaking down
No, no, no
No time to cry. 


Intro (Guitar solo)

||---------------------------|--------------------------|
||---------------------------|--------------------------|
||*--8--8--8--8--8--6--8-----|--------------------------|
||*-----------------------9--|--9--9--9--8--8--9--9--6--|
||---------------------------|--------------------------|
||---------------------------|--------------------------|

--------------------------|----------------------------||
--------------------------|----------------------------||
--------------------------|---------------------------*||
--6--6--9--9--8--8--9--9--|--8--8--8--9--11--9--8--9--*||
--------------------------|----------------------------||
--------------------------|----------------------------||


Intro (Guitar rythm)
||----------------------------------|
||----------------------------------|
||*---------------------------------|
||*--13--13--13--13--13--11--13--9--|
||---11--11--11--11--11--11--11--7--|
||---11--11--11--11--11--11--11--7--|


--------------------------|--------------------------|
--------------------------|--------------------------|
--------------------------|--------------------------|
--9--9--9--8--8--9--9--6--|--6--6--9--9--8--8--9--9--|
--7--7--7--7--7--7--7--4--|--4--4--4--4--4--4--4--4--|
--7--7--7--7--7--7--7--4--|--4--4--4--4--4--4--4--4--|


----------------------------||---------------------------|
----------------------------||---------------------------|
---------------------------*||---------------------------|
--8--8--8--9--11--9--8--9--*||--8--8--8--9--11--9--8--9--|
--6--6--6--7---9--7--6--7---||--6--6--6--7---9--7--6--7--|
--6--6--6--7---9--7--6--7---||--6--6--6--7---9--7--6--7--|


Main Rythm Part 1
|---------------------------|--------------------------|
|---------------------------|--------------------------|
|*--------------------------|--------------------------|
|*--6-------------6h--9--2--|--------------------------|
|---6--------------------2--|--------2-----1-----2-----|
|---4----4--4--4---------0--|--0--0-----0-----0-----0--|

    
--------------------------|------------------------------------------||
--------------------------|------------------------------------------||
--6----6--6--6--6S--8--8--|-----------------------------------------*||
--6----6--6--6--6S--8--8--|--------------------9--------8--------9--*||
--4----4--4--4--4S--6--6--|--6--6--6--6--6--6-----6--6-----6--6------||
--------------------------|------------------------------------------||


Main Rythm Part 2
---------------------------------------|----------------------------------|
---------------------------------------|----------------------------------|
*--------------------------------------|----------------------------------|
*--------------9-9-9-9-8-8-8-8-9-9-9-9-|----------9-9-9-9-8-8-8-8-9-9-9-9-|
---11-11-11-11-------------------------|--7-7-7-7-------------------------|
---------------------------------------|----------------------------------|


----------------------------------|-------------------------------------||
----------------------------------|-------------------------------------||
----------------------------------|------------------------------------*||
----------9-9-9-9-8-8-8-8-9-9-9-9-|----------8-8-9-9-11-11-9-9-8-8-9-9-*||
----------------------------------|--6-6-6-6----------------------------||
--9-9-9-9-------------------------|-------------------------------------||
                   
                                                                            4x
---------------------------------------------|--------------------------------||
---------------------------------------------|--------------------------------||
*------------------4-4--4--4-4--4------------|-------9-9-9-9-8-8-8-8---------*||
*--6-6--6--6-6--6--4-4--4--4-4--4--2-2--2--2-|--2--------------------9-9-9-9-*||
---6-6--6--6-6--6--2-2--2--2-2--2--2-2--2--2-|--2-----------------------------||
---4-4--4--4-4--4------------------0-0--0--0-|--0-----------------------------||

             







Тональность:

Это должно быть в ТОП-листе! - Топ-лист композиций



Назад
Рекомендуем посмотреть другие песни исполнителя «Cradle Of Filth»:

  • Комменты Fb ()
  • Комменты ВК



Добавить в Избранное Браузера
Сохранить здесь Очистить


x

0


+
-

+
-

-

Авторизация





Зарегистрироваться

M

Дата и время

  • 15:00:51
     

Социальные ссылки


Наши приложения

  • Muzbank App Play Market
  • Muzbank Amazon App