MUZBANK


МУЗЫКАЛЬНО-ИНФОРМАЦИОННЫЙ БАНК





CCradle Of Filth • Temptation (аккорды и текст - chords & lyrics)


689

Print

Видео «Temptation (Cradle Of Filth)»

Видео клипы к песне подбираются автоматически сайтом youtube. Возможны некоторые несоответствия клипов песне.

↑ Спрятать рекламу ↑





I`ve never been closer
I`ve tried to understand
That certain feeling
Called by another sound
But it`s too late to hesitate
We can`t keep on living like this

Leave no track
Don`t look back

All I desire
Temptation
Keep climbing higher and higher
Temptation
Adorable creatures
Temptation
With unacceptable features
Temptation
And trouble is coming
Temptation
It`s just the high cost of loving
Temptation
You can take it or leave it
Temptation
But you`d better believe it

You`ve got to make me an offer
That cannot be ignored
So let`s head for home now
Everything I have is yours
Step by step and day by day
Every second counts I can`t break away

Leave no trace
Hide your face

Full of desire
Temptation
Keep climbing higher and higher
Temptation
And you can take it or leave it
Temptation
But you`d better believe it
yeah

Step by step
Day by day
Every second counts
I can`t break away

Keep us from temptation [x3]
Lead us not into temptation

Trying to find it
Temptation
You`ve got to get up behind it
Temptation
Put your dime in the hot slot
Temptation
But it`s a million to one shot
Temptation
You think that you`re right
Temptation
Your gonna face it tonight now
Temptation
Give me a breakdown
Temptation
Because it`s time for a shakedown
Temptation [x16]



[Intro:]                 [Verse/Chorus:]

|---------------  -----------------------------------------|  
|---------------  -----------------------------------------|
|---------------  -----------------------------------------|  
|-5/8/10-----	x2	-10\-	---------------------------|	x7
|-3/6/8------	 	-8-\-	-8-7-5-3-5-222-5-3--22-5-3-|
|---------------  --------------8-7-5-3-5-222-5-3--22-5-3--|

[Interlude:]

|----------------------|   
|----------------------|                              
|----------------------|                              
|----------------------|                          
|-8-7-5-3-0-2222222 ---|           
|-8-7-5-3-0-2222222 ---|           

play this and on the 2nd time play this
-----------	---	---------------
-----------	---	---------------	repeat
-----------	---	---------------
-----------	---	---------------
-10~---6~--	---	-10~---6666----
-10~---6~--	---	-10~---6666--  
                         PM

|-------|
|-------| pause after
|-------| for bass solo
|-------| then back to intro x2
|--6\---| to Verse/Chorus x3 to interlude
|--6\---| then to solo/Verse.


[Solo/Verse]

-------------------------------------
-------------------------------------
-------------------------------------
-------------------------------------
-10~---6~--13~-----10~--8~--6~---13~-
-10~---6~--13~-----10~--8~--6~---13~-

-------------------------	-----------
-------------------------	-----------
-------------------------	-----------
-------------------------	-----------
-10~---6~--5~---10~--8~--	-6~-13~-8~-
-10~---6~--5~---10~--8~--	-6~-13~-8~-
                               x3^
[Solo]

-----------2020------	---	-----------2323-----------
------2020------2020-	---	------2323------2323------
-1717----------------	x2-	-2020----------------2323-
---------------------	---	--------------------------
---------------------	---	--------------------------
---------------------	---	--------------------------

-----------2323-----------------2323------	-	-----------2020------
------2323------2323-------2323------2323-	-	------2020------2020-
-2020-----------------2222----------------	-	-1717----------------
------------------------------------------	-	---------------------	x2
------------------------------------------	-	---------------------
------------------------------------------	-	---------------------

-----------2222-----------------2220--1616------1616-2020-
------1818------1818-------1818------------1616-----------
-1515-----------------1515--------------------------------
----------------------------------------------------------
----------------------------------------------------------
----------------------------------------------------------

-1616------1616----------------1818-2222-1818------1818-2222-20^-
------1616------1616------1818----------------1818---------------
---------------------1515----------------------------------------
-----------------------------------------------------------------
-----------------------------------------------------------------
-----------------------------------------------------------------

[Verse/chorus]

---------------------------
---------------------------	  until the end 
---------------------------
-8-7-5-3-5-222-5-3--22-5-3-
-8-7-5-3-5-222-5-3--22-5-3-

Тональность:

Это должно быть в ТОП-листе! - Топ-лист композиций



Назад
Рекомендуем посмотреть другие песни исполнителя «Cradle Of Filth»:

  • Комменты Fb ()
  • Комменты ВК



Добавить в Избранное Браузера
Сохранить здесь Очистить


x

0


+
-

+
-

-

Авторизация





Зарегистрироваться

M

Дата и время

  • 14:22:30
     

Социальные ссылки


Наши приложения

  • Muzbank App Play Market
  • Muzbank Amazon App