MUZBANK


МУЗЫКАЛЬНО-ИНФОРМАЦИОННЫЙ БАНК





CCranberries • Free To Decide (аккорды и текст - chords & lyrics)


499

Print

Видео «Free To Decide (Cranberries)»

Видео клипы к песне подбираются автоматически сайтом youtube. Возможны некоторые несоответствия клипов песне.

↑ Спрятать рекламу ↑





Intro:

   G             C             Am            Am
E|---------------------------------------------------------|
B|-----------------------------1-1-1-0--1--1-1-1-1-3--1--1-|
G|-0-0-0-0--0--0-0-0-0-0--0--0-2-2-2-2--2--2-2-2-2-2--2--2-| 2X
D|-0-0-0-0--0--0-2-2-2-2--2--2-2-2-2-2--2--2-2-2-2-2--2--2-|
A|-2-2-2-0--2--2-3-3-3-3--3--3-0-0-0-0--0--0-0-0-0-0--0--0-|
E|-3-3-3-3--3--3-------------------------------------------|

Verse:
     G                  C                 Am
It's not worth anything more than this at all
     G                     C                Am
I'll live as I choose or I will not live at all
     G                 C/G          Am
So return to where you come from, return to where you dwell
           G                C              Am
Because harassment's not my forte, but you do it very well

Chorus:
        G       C/G         Am
But I'm free to decide, I'm free to decide,
        G         C           Am
And I'm not so suicidal after all.
    G       C/G         Am
I'm free to decide, I'm free to decide
        G         C           Am
And I'm not so suicidal after all.

You must have nothing more with your time to do
There's a war in Russia and Sarajevo too
So to hell with what you're thinking
And to hell with your narrow mind
Your so distracted from the real things
You should leave your life behind

(chorus)

(Bridge:  Same chords as verse, with some vocal wailing)

(chorus)

Solo:

E|-------------------------------------------------------------|
B|-0-0-0-1-3-3-5-5-5-8-8-10-10h12-12-10-12-10-10h12-12-10-12-10|
G|-------------------------------------------------------------|
D|-------------------------------------------------------------|
A|-------------------------------------------------------------|
E|-------------------------------------------------------------|

E|--------------------------------------------12-12-12-10-12-10|
B|-0-0-0-1-3-3-5-5-8-8-8-10-10h12-12-10-12-10-12-12-12-10-12-10|
G|-------------------------------------------------------------|
D|-------------------------------------------------------------|
A|-------------------------------------------------------------|
E|-------------------------------------------------------------|

E|-12-12-12-10--12--10-|
B|-12-12-12-10--12--10-|
G|---------------------|  4X
D|---------------------|
A|---------------------|
E|---------------------|

E|-----------------------------------------12-12-12-10-10-10-10|
B|0-0-1-3-3-5-5-5-8-8-10-10h12-12-10-12-10-12-12-12-10-10-10--0|
G|------------------------------------------------------------0|
D|-------------------------------------------------------------|
A|-------------------------------------------------------------|
E|-------------------------------------------------------------|

Тональность:

Это должно быть в ТОП-листе! - Топ-лист композиций



Назад
Рекомендуем посмотреть другие песни исполнителя «Cranberries»:

  • Комменты Fb ()
  • Комменты ВК



Добавить в Избранное Браузера
Сохранить здесь Очистить


x

0


+
-

+
-

-

Авторизация





Зарегистрироваться

M

Дата и время

  • 23:43:29
     

Социальные ссылки


Наши приложения

  • Muzbank App Play Market
  • Muzbank Amazon App