MUZBANK


МУЗЫКАЛЬНО-ИНФОРМАЦИОННЫЙ БАНК





CCranberries • Hollywood 3 (аккорды и текст - chords & lyrics)


435

Print

Видео «Hollywood 3 (Cranberries)»

Видео клипы к песне подбираются автоматически сайтом youtube. Возможны некоторые несоответствия клипов песне.

↑ Спрятать рекламу ↑





Intro (X2)

G----------------|----------------|----------------|----------------|
D----------------|----------------|----------------|----------------|
A----------------|-3-(let ring)---|----------------|----------------|
E----------------|----------------|----------------|----------------|


Chorus (x4)

G----------------|----------------|----------------|----------------|
D----------------|----------------|----------------|----------------|
A----------------|-3---3---3---3--|-0---0---0---0-0|-0---0---0---2--|
E-0---0---0---0--|----------------|----------------|----------------|


Verse (x8)

G----------------|----------------|----------------|----------------|
D----------------|----------------|----------------|----------------|
A----------------|-3---3---3---r--|-0---0---0---0-0|-0---0---0---2--|
E-0---0---0---r--|----------------|----------------|----------------|


Chorus (x8)

G----------------|----------------|----------------|----------------|
D----------------|----------------|----------------|----------------|
A----------------|-3---3---3---3--|-0---0---0---0-0|-0---0---0---2--|
E-0---0---0---0--|----------------|----------------|----------------|


Verse (x8)

G----------------|----------------|----------------|----------------|
D----------------|----------------|----------------|----------------|
A----------------|-3---3---3---r--|-0---0---0---0-0|-0---0---0---2--|
E-0---0---0---r--|----------------|----------------|----------------|


Chorus (x10)

G----------------|----------------|----------------|----------------|
D----------------|----------------|----------------|----------------|
A----------------|-3---3---3---3--|-0---0---0---0-0|-0---0---0---2--|
E-0---0---0---0--|----------------|----------------|----------------|


Verse (x2)

G----------------|----------------|----------------|----------------|
D----------------|----------------|----------------|----------------|
A----------------|-3---3---3---r--|-0---0---0---0-0|-0---0---0---2--|
E-0---0---0---r--|----------------|----------------|----------------|


End (tack onto end of final verse)

G----------------|
D----------------|
A----------------|
E-3---0-(lr)-----|

Тональность:

Это должно быть в ТОП-листе! - Топ-лист композиций



Назад
Рекомендуем посмотреть другие песни исполнителя «Cranberries»:

  • Комменты Fb ()
  • Комменты ВК



Добавить в Избранное Браузера
Сохранить здесь Очистить


x

0


+
-

+
-

-

Авторизация





Зарегистрироваться

M

Дата и время

  • 00:28:19
     

Социальные ссылки


Наши приложения

  • Muzbank App Play Market
  • Muzbank Amazon App